Beethoven

home > Beethoven

9ª Sinfonia Tab

Beethoven

Difficulty: BeginnerBeginner

by malbuquerque

tuner correct add songbook print version text version save to e-mail
chordsukulelecavacokeyboardtabbassdrumsharmonicsflute Guitar Pro
chords

9ª Sinfonia

  		E|------------------------------------------------------------------------------------ 
B|--0--0--1--3--3--1--0--------------0--0--------------------------------------------- 
G|-----------------------2--0--0--2--------2---2-------------------------------------- 
D|------------------------------------------------------------------------------------ 
A|------------------------------------------------------------------------------------ 
E|------------------------------------------------------------------------------------ 

E|------------------------------------------------------------------------------------ 
B|--0--0--1--3--3--1--0--------------0--0--------------------------------------------- 
G|-----------------------2--0--0--2--------0--0--------------------------------------- 
D|------------------------------------------------------------------------------------ 
A|------------------------------------------------------------------------------------ 
E|------------------------------------------------------------------------------------ 

E|------------------------------------------------------------------------------------ 
B|--------0--------0--1--0--------0--1--0--------------------------------------------- 
G|--2--2-----0--2-----------0--2-----------2--0--2------------------------------------ 
D|--------------------------------------------------0--------------------------------- 
A|------------------------------------------------------------------------------------ 
E|------------------------------------------------------------------------------------ 

E|------------------------------------------------------------------------------------ 
B|--0--0--1--3--3--1--0--------------0--0--------------------------------------------- 
G|-----------------------2--0--0--2--------0--0--------------------------------------- 
D|------------------------------------------------------------------------------------ 
A|------------------------------------------------------------------------------------ 
E|------------------------------------------------------------------------------------ 
	  

Search Paypal
auto scroll beats size up size down change color hide chords drawings
tab show chords e-chords YouTube Clip e-chords hide all tabs e-chords go to top tab