Beethoven

home > Beethoven

5ª Sinfonia Tab

Beethoven

Difficulty: ExpertExpert

tuner correct add songbook print version text version save to e-mail
chordsukulelecavacokeyboardtabbassdrumsharmonicsflute Guitar Pro
chords

5ª Sinfonia

  		Tablatura por: Marilyn Manson XES

|---6--7--6--7---6--7---------------0----------------------------|
|----------------------7--10--8----------2--------2--------------|
|-----------------------------------------2-----------1----------|
|-------------------------------------------0------------2-------|
|--------------------------------------------0--------------0--3-|
|-----------------------------------0---------0---2--------------|


|-----------|--0----------6--7--6--7---6--7---------------0-------|
|-----------|--------------------------------7--10--8-------------|
|------0----|-----------------------------------------------------|
|-----------|--0-----0--------------------------------------------|
|-----------|-----0-----------------------------------------------|
|--2---3----|---------------------------------------------0-------|


|-------------------------------------0--------0------------------|
|----2--------2---------------------------------------------------|
|-----2------------1----------------------------------------------|
|------0--------------2---------------------------0---0-----------|
|-------0----------------0--------------------------0-------------|
|--------0----2--------------3---2----0---------------------------|


2ºparte

|-----------------------------------------------------------------|
|-----------------------------------------------------------------|
|---0-----2-----3-----5------------------------3------------------|
|-----------------------------------------------------------------|
|--------------------------0-----0------------------0---0---------|
|---2-----3-----5-----7-------7------8---7-----5------5-----8--5--|


|--------------------------------------0--------------------------|
|-----------------------------------------------------------------|
|----2------------------------0-----------------------------------|
|-----------------------------------------0---0-------------------|
|---------0---0-----------------------------0---------------------|
|----3------3-------5----3----2-----------------------------------|

	  

Search Paypal
auto scroll beats size up size down change color hide chords drawings
tab show chords e-chords YouTube Clip e-chords hide all tabs e-chords go to top tab