Beastie Boys

Fight For Your Right

Beastie Boys

tabs Expert expert

save to print version add songbook text version e-mail correct tuner
chordsukulelecavacokeyboardtabbassdrumsharmonicaflute Guitar Pro
close

there isn't a video lesson for this song

chords

Fight For Your Right

Year: 1986 - Album: Solid Gold Hits

	  		 
Introdução 
 
E|-----| 
B|-----|         
G|-----|          
D|-----|  
A|-4-6-|          
E|-2-4-|          
 
Kickin! 
 
Riff principal 
|------------| 
|------------| 
|------------| 
|------------| repete algumas vezes 
|-6--9--11---| 
|-4--7--9----| 
               
da ultima vez toque assim 
 
|-----------| 
|-----------| 
|-----------| 
|-----------| dai vai pro verso 
|-6--9--6-6-| 
|-4--7--4-4-| 
 
Verso 
 
|--------------------------| 
|--------------------------| 
|--------------------------| 
|--------------------------| seguindo com o Riff 
|--6-6-6-6-6-6-6-6-6-------| principal 
|--4-4-4-4-4-4-4-4-4-(etc)-| 
PM . . . . . . . . . 
 
fica nisso ateh chegar no refrao 
 
Refrao 
 
u've gotta fight |-------| 
                 |-------| 
                 |-------| 
                 |-------| 
                 |-11-11-| 
                 |-9--9--| 
 
for your right |------| 
               |------| 
               |------| 
               |------| 
               |-11/9-| 
               |-9/-7-| 
 
to paaaaaarty (segue com o riff principal) 
 
dai aquela partezinha depois do refrao fica assim 
 
|-----------------------------------------------| 
|-----------------------------------------------| 
|-----------------------------------------------| 
|-----------------------------------------------| 
|-6/10-6-6-6-6/10-6-6-6-6/10-6-6-6-6/10-6-6-6-6-| 
|-4/8--4-4-4-4/8--4-4-4-4/8--4-4-4-4/8--4-4-4-4-| 
 
o solo eu nao tirei, mas improvisando alguma coisa em cima de pentatonica fica legal 
(segue com riff principal atras do solo) 
 
e eh isso ai o resto da musica toda, vlw  
 
_______________________________________________________ 
Contribuição: Fillipe Dobbin([email protected]) 

		  

See also:

tabs Usher - U Remind Me tabs Usher - Bad Girl (ver. 2) tabs Nelly - Ride Wit Me (ver. 2) tabs Eminem - Without me tabs Usher - Yeah (ver. 4) tabs Missy Elliot - Get Ur Freak On
e-chords

Other versions:

tabs Beastie Boys - Fight For Your Right
auto scroll beats size up size down change color hide chords drawings
tab show chords e-chords YouTube Clip e-chords hide all tabs e-chords go to top tab

share