Be Bop Deluxe

Stage Whispers

Be Bop Deluxe

tabs

by  JESSGOMES

save to print version add songbook text version e-mail correct tuner
chordsukulelecavacokeyboardtabbassdrumsharmonicaflute Guitar Pro
close

there isn't a video lesson for this song

chords

Stage Whispers

	  		Intro:   



   E5                                                                

e|--------12-------------------------------------------------------|  
B|-15b17~---15-12h15p12--12h15p12--12h15p12--12h15p12--12h15p12----|  
G|---------------------14--------14--------14--------14--------14--|  
D|-----------------------------------------------------------------|  
A|-----------------------------------------------------------------|  
E|-----------------------------------------------------------------|  
  ( Free time... )  


   E5    D#5  C#5                                                    

e|-15b17-15~--12------------------------------------------------------|  
B|--------------12-15----12-------------------------------------------|  
G|--------------------14-12-12---14-12h13--12-------------------------|  
D|----------------------------14-14------14--14-12-14p12--12----------|  
A|------------------------------------------------------14--14\12p10~-|  
E|--------------------------------------------------------------------|  


   F#5                                                               

e|----------------------------------------------------------------------|  
B|-----------------------------------------------------------17p16--16--|  
G|--------------------------------------------------14h16h18------18----|  
D|---------------------12------14--16p14--14---16h18--------------------|  
A|---------10-12--12/14---14/16---------16------------------------------|  
E|-12p10h12-------------------------------------------------------------|  


               G#5            A5                        C5           

e|------16h17-19-16-19-16-19-19b21~~~21r19b21r19b21r19~~--19-------|  
B|-17h19----------------------------------------------------19b21--|  
G|-----------------------------------------------------------------|  
D|-----------------------------------------------------------------|  
A|-----------------------------------------------------------------|  
E|-----------------------------------------------------------------|  


   D5                                                                

e|-----------------------------------------------------------------|  
B|-16-17p16--------------------------------------------------------|  
G|----------18--16--18p16\14--16p14\13--14p13\11--13p11\9--11p9\7--|  
D|-----------------------------------------------------------------|  
A|-----------------------------------------------------------------|  
E|-----------------------------------------------------------------|  


   D5                                                                

e|--------------------------------------------------------------------|  
B|--------------------------------------------------------------------|  
G|-9p7\5-\4-\2--------------------------------------------------------|  
D|-------------5--3p2h5--3---p2---------------------------------------|  
A|--------------------------------5----p3----p2~~~~~~~~~~~~~~~~~~~~~~-|  
E|--------------------------------------------------------------------|  




Verse: ( 4/4 time )  " Well I'm... "  


   A               A/G#             F#m             E                
" Waiting in the wings with all the strings and things that help me make the... "  
e|--------------------------------|----------------------------------|  
B|--------------------------------|----------------------------------|  
G|-2---x-x-2---x-x-2---x-x-2------|----------------------------------|  
D|-2---x-x-2---x-x-2---x-x-2---x-x--4---x-x-4---x-x-2---x-x-2---x-x--|  
A|-0---x-x-0---x-x-x---x-x-x---x-x--4---x-x-4---x-x-2---x-x-2---x-x--|  
E|-----------------4-------4---x-x--2---x-x-2---x-x-0---x-x-0---x-x--|  

 | 1 - & - 2 - & - 3 - & - 4 - & -| 1 - & - 2 - & - 3 - & - 4 - & -|  


   D                       G/D      D                                
 " Music...                                                     Just... "  
e|-------------------------3------|-2------------------------------|  
B|-3-----------------------3------|-3------------------------------|  
G|-2-----------------------2------|-2------------------------------|  
D|-0-----------------------0------|-0------------------------------|  
A|--------------------------------|---------<<<<<<<<<<<<<<<<-------|  
E|--------------------------------|---------<<<<<<<<<<<<<<<<-------|  
                                     ( pick scrape, first time only... )  


   A               A/G#             F#m             E                
" another  curtain call  before I   fall  into your arms again my... "  
e|--------------------------------|----------------------------------|  
B|--------------------------------|----------------------------------|  
G|-2---x-x-2---x-x-2---x-x-2------|----------------------------------|  
D|-2---x-x-2---x-x-2---x-x-2---x-x--4---x-x-4---x-x-2---x-x-2---x-x--|  
A|-0---x-x-0---x-x-x---x-x-x---x-x--4---x-x-4---x-x-2---x-x-2---x-x--|  
E|-----------------4-------4---x-x--2---x-x-2---x-x-0---x-x-0---x-x--|  



   D                       G/D      D                                
 " Beauty...                                  This guitar does not... "  
e|-------------------------3------|-2------------------------------|  
B|-3-----------------------3------|-3------------------------------|  
G|-2-----------------------2------|-2------------------------------|  
D|-0-----------------------0------|-0------------------------------|  
A|--------------------------------|--------------------------------|  
E|--------------------------------|--------------------------------|  



   E5      F#5     G5    F#    E5                                    
 " lie...                               The great deception is not... "  
e|--------------------------------|--------------------------------|  
B|--------------------------------|--------------------------------|  
G|--------------------------------|--------------------------------|  
D|-2-------4-------5-----4--------|--------------------------------|  
A|-2-------4-------5-----4--------|--------------------------------|  
E|-----------------------------0~~~~~~~~~~~~-----------------------|  



   C (x3x01x)      F (1332xx)       D (xx023x)                       
 " My      -       y               achievement "  
e|-7--h8--p7----------------------|--------------------------------|  
B|-------------8------------------|--------------------------------|  
G|-----------------9--------------|--------------------------------|  
D|---------------------9----------|--------------------------------|  
A|-------------------------10-/12~~~10/12~~~~~~~~\-----------------|  
E|--------------------------------|--------------------------------|  



Repeat verse, more or less the same.  


Middle part:  


   D (xx023x)                                                        
 ( Lead guitar... )  
e|--------------------------------|-10----12----14-14b15-14---15---|  
B|-3-----------------------------10--------------------------------|  
G|-2--------------------------11--|--------------------------------|  
D|-0------------------------------|--------------------------------|  
A|--------------------------------|--------------------------------|  
E|--------------------------------|--------------------------------|  



   B                         A      B                       A        
 " Where...                                         is          the... "  
e|--------------------------------|--------------------------------|  
B|--------------------------------|--------------------------------|  
G|-4-------4-4-4---4---4-----2----|-4-------4-4-4---4-------2------|  
D|-4-------4-4-4---4---4-----2----|-4-------4-4-4---4-------2------|  
A|-2-------2-2-2---2---2-----0----|-2-------2-2-2---2-------0------|  
E|--------------------------------|--------------------------------|  
( Lead guitar... )  
e|-14~~~~\0-----------------------|-------------------------14b15r14--|  
B|--------------------------------|-----------------------------------|  
G|--------------------------------|-----------------------------------|  
D|--------------------------------|-----------------------------------|  
A|--------------------------------|-----------------------------------|  
E|--------------------------------|-----------------------------------|  

 | 1 - & - 2 - & - 3 - & - 4 - & -| 1 - & - 2 - & - 3 - & - 4 - & -|  




   G                         F#     G               C                
 " One...                                                       who... "  
e|--------------------------------|--------------------------------|  
B|--------------------------------|--------------------------------|  
G|--------------------------------|-----------------5-----5-----5--|  
D|-5-------5-5-5---5--------------|-----------------5-----5-----5--|  
A|-5-------5-5-5---5--------------|-----------------3-----3-----3--|  
E|-3-------3-3-3---3---3-----2----|-3-------3-3-3------------------|  
( Lead guitar... )  
e|-12------\10--------------------|--------------------------------|  
B|-----------------10h12~~~~~~~~--|-----------------12----12----12-|  
G|--------------------------------|--------------------------------|  
D|--------------------------------|--------------------------------|  
A|--------------------------------|--------------------------------|  
E|--------------------------------|--------------------------------|  



   B                         A      B               B       A        
 " knows...                                     the shape of things to... "  
e|--------------------------------|--------------------------------|  
B|--------------------------------|--------------------------------|  
G|-4-------4-4-4---4---4-----2----|-4---------------4-------2------|  
D|-4-------4-4-4---4---4-----2----|-4---------------4-------2------|  
A|-2-------2-2-2---2---2-----0----|-2---------------2-------0------|  
E|--------------------------------|--------------------------------|  
( Lead guitar... )  
e|--------------------------------|--------------------------------|  
B|-12~~~~~~~~~~~~~\---------------|-----12-b13-r12--10-------------|  
G|--------------------------------|---------------------12--12--11-|  
D|--------------------------------|--------------------------------|  
A|--------------------------------|--------------------------------|  
E|--------------------------------|--------------------------------|  



   G                         F#     G               G       F#       
 " come?                                      the thrills that I have... "  
e|--------------------------------|--------------------------------|  
B|--------------------------------|--------------------------------|  
G|--------------------------------|--------------------------------|  
D|-5-------5-5-5---5--------------|--------------------------------|  
A|-5-------5-5-5---5--------------|--------------------------------|  
E|-3-------3-3-3---3---3-----2----|-3---------------3-------2------|  
( Lead guitar... )  
e|--------------------------------|----------------------------------|  
B|--------------------------------|-----------------10b12~~~10b12~~~-|  
G|-9~~~~~~~~~~~~~~\7~~~7~~~~~~~---|-------------7--------------------|  
D|--------------------------------|-----7h8h9------------------------|  
A|--------------------------------|----------------------------------|  
E|--------------------------------|----------------------------------|  



   E                         D      E                                
 " Won...                                       the kiss that time's... "  
e|---------0-0-0---0---0----------|--------------------------------|  
B|---------0-0-0---0---0-----3----|--------------------------------|  
G|---------------------------2----|--------------------------------|  
D|---------------------------0----|-2------------------------------|  
A|--------------------------------|-2------------------------------|  
E|-0------------------------------|-0------------------------------|  
( Lead guitar... )  
e|--------------------------------|--------------------------------|  
B|-10b12~~~~~~~~~~~~~~~~~~~~~~\---|--------------------------------|  
G|--------------------------------|--------------------------------|  
D|--------------------------------|--------------------------------|  
A|--------------------------------|--------------------------------|  
E|--------------------------------|--------------------------------|  



   A7                               A                                
 " Begun...                     for me. "  
e|-3------------------------------|----------------------------------|  
B|-3------------------------------|-2--------------------------------|  
G|-0------------------------------|-2--------------------------------|  
D|-2------------------------------|-2--------------------------------|  
A|-0------------------------------|-0--------------------------------|  
E|--------------------------------|----------------------------------|  
( Lead guitar... )  
e|--------------------------------|--------------------------------|  
B|--------------------------------|--------------------------------|  
G|-7~~~~~~~~~~~~~~~~~~~~~~~~~~~6-p0-6------------------------------|  
D|--------------------------------|--------------------------------|  
A|--------------------------------|--------------------------------|  
E|--------------------------------|--------------------------------|  




Instrumental: Funky Guitar Riff... ( note stretched bars )  

01:26  

   Dm                  C           G                                
( wah-wah pedal... )  
e|-10--10--10--10------8-------x---7---7---7----------------------|  
B|-10--10--10--10------8-------x---8---8---8----------------------|  
G|-10--10--10--10------9-------x---7---7---7------/12-------------|  
D|----------------------------------------------------------------|  
A|----------------------------------------------------------------|  
E|----------------------------------------------------------------|  

 | 1   -   &   -   2   -   &   -   3   -   &   -   4   -   &   -  |  



   Dm                 C        G                                    
( wah-wah pedal... )  
e|-10--10--10--10------8-------7---7------------------------------|  
B|-10--10--10--10------8-------8---8------------------------------|  
G|-10--10--10--10------9-------7---7-------7------/12-------------|  
D|----------------------------------------------------------------|  
A|----------------------------------------------------------------|  
E|----------------------------------------------------------------|  


   Dm                 C            G                                
( wah-wah pedal... )  
e|-10--10--10--10------8-------x---7---7---7----------------------|  
B|-10--10--10--10------8-------x---8---8---8----------------------|  
G|-10--10--10--10------9-------x---7---7---7------/12-------------|  
D|------------------------------------------------/12-------------|  
A|----------------------------------------------------------------|  
E|----------------------------------------------------------------|  


   C           F           C                                        
( wah-wah pedal... )  
e|----------------------------------------------------------------|  
B|-8-----------10----------8~\------------------------------------|  
G|-9-----------10----------9~\------------------------------------|  
D|-10----------10----------10\------------------------------------|  
A|----------------------------------------------------------------|  
E|----------------------------------------------------------------|  



Repeat verse.  

Drum Solo:  


End Guitar Solo:  

   D                                Bm                               
02:10  
e|--------------------------------|---------------------------------------|  
B|--------------------------------|---------------------------------------|  
G|--------------------------------|-7-------------------9b11~~9b11~~9b11~-|  
D|------------------------------9-|-7-------------------------------------|  
A|--------------------------------|---------------------------------------|  
E|--------------------------------|---------------------------------------|  



Repeat until:  

   D                                Bm                               

e|--------------------------------|------------------------------------|  
B|--------------------------------|------------------------------------|  
G|-9b11~~~r9----------------------|-7~~~~~~\--------------------10h11--|  
D|-----------------------------7h9--7~~~~~~\---------------------------|  
A|--------------------------------|------------------------------------|  
E|--------------------------------|------------------------------------|  


  D                                Bm                                
02:23  
e|-10-----------------------------|---------------------10--------------|  
B|------10------------------------|-----13b15---13b15-------13p10-------|  
G|------10h11---------------------|------------------------------10h11--|  
D|-------------12~~~~~~~~~\-------|-------------------------------------|  
A|--------------------------------|-------------------------------------|  
E|--------------------------------|-------------------------------------|  


  D                                Bm                                

e|--------------------------------|-------------------------------------|  
B|--------------------------------|-------------------------------------|  
G|-----10-------------------------|-------------------------------------|  
D|-12------12---------------------|-12----------------------12h14p12----|  
A|------------12/14------------12h14-------------------12h14--------14--|  
E|--------------------------------|-------------------------------------|  


  D                                Bm                               

e|-------------------------17-----|-----17-14--14------------------|  
B|--------------15p14--14---------|----------15--15----------------|  
G|---------14h16-----16-----------|----------------14~~------------|  
D|-12h14h16-----------------------|--------------------------------|  
A|--------------------------------|--------------------------------|  
E|--------------------------------|--------------------------------|  


Stretched bars...  

   D                                                                

e|-14--12--10-----------------------------------------------------|  
B|-------------14--12--10-----------------------------------------|  
G|-------------------------12--11--9------------------------------|  
D|-------------------------------------12--11--9------------------|  
A|-------------------------------------------------12--10--9------|  
E|-------------------------------------------------------------12-|  

 | 1   -   &   -   2   -   &   -   3   -   &   -   4   -   &   -  |  


   Bm                                                               

e|----------------------------------------------------------------|  
B|----------------------------------------------------------------|  
G|----------------------------------------------------------------|  
D|---------------------------------------------------------7--h9--|  
A|-9---------------9---------------9~~~~~~\-----------------------|  
E|---------12--------------12-------------------------------------|  



  D                                Bm                                
02:37  
e|--------------------------------|-------------------7------------|  
B|--------------------------------|-----------------7---10-7--7-10-|  
G|-7-9-----9---9^~~~~~~~r9-7~~~---|---------7---9^----------9------|  
D|--------------------------------|-----9--------------------------|  
A|--------------------------------|--------------------------------|  
E|--------------------------------|--------------------------------|  

  D                                Bm                                

e|-----------------------------7--|--------------------------------|  
B|-10b12-10b12-10b12~~~~~~~------10-7---10------7~~~~~~~~~~~-------|  
G|--------------------------------|---------9----------------------|  
D|--------------------------------|--------------------------------|  
A|--------------------------------|--------------------------------|  
E|--------------------------------|--------------------------------|  


Stretched bars...  

   D                                                                 

e|-12b13---12p10-------10--12-h13-p12--10------10--12-h13-p12--10-|  
B|-----------------12----------------------12---------------------|  
G|----------------------------------------------------------------|  
D|----------------------------------------------------------------|  
A|----------------------------------------------------------------|  
E|----------------------------------------------------------------|  

 | 1   -   &   -   2   -   &   -   3   -   &   -   4   -   &   -  |  


   Bm                                                               

e|-----10--12-h13-p12--10------10--12-h13-p12--10------10---------|  
B|-12----------------------12----------------------12------13--12-|  
G|----------------------------------------------------------------|  
D|----------------------------------------------------------------|  
A|----------------------------------------------------------------|  
E|----------------------------------------------------------------|  


   D                                                                

e|-------------------------------------------------------------------|  
B|-10------10--------------------------------------------------------|  
G|-----12------12--9--h10-p9-------9------------------------------9--|  
D|-----------------------------12------12--10--9-------9--10--12-----|  
A|-------------------------------------------------12----------------|  
E|-------------------------------------------------------------------|  


   Bm                                                               

e|-----------------------------10--12--14--------------10--12--12b14--|  
B|---------------8h10-/12--14--------------10--12--14-----------------|  
G|-11--9p7h9--11------------------------------------------------------|  
D|--------------------------------------------------------------------|  
A|--------------------------------------------------------------------|  
E|--------------------------------------------------------------------|  



Ending: ( No chord )  


                                                                     
02:51  
e|-12b14-12b14-12b14-------12-14--|-10---------------------------------|  
B|------------------------------10----10------------------------13b15~-|  
G|--------------------------------|-----10^----------------------------|  
D|--------------------------------|---------12~~~~~~-------------------|  
A|--------------------------------|------------------------------------|  
E|--------------------------------|------------------------------------|  

 | 1 - & - 2 - & - 3 - & - 4 - & -| 1 - & - 2 - & - 3 - & - 4 - & -|  


                                                                     

e|--------------------------------|--------------------------------|  
B|-13b15-13b15--13b15--13p10---10-|--------------------------------|  
G|--------------------------12----|-12b14~~~~~~~~~~\---------------|  
D|--------------------------------|--------------------------------|  
A|--------------------------------|--------------------------------|  
E|--------------------------------|--------------------------------|  


                                                                     

e|--------------------------------|--------------------------------|  
B|--------------------------------|-------------------------10--12-|  
G|--------------------------------|-------7-----9------/11---------|  
D|-----------------------------7--|-9------------------------------|  
A|-------------5-------7---9------|--------------------------------|  
E|-5-----7------------------------|--------------------------------|  


                                                                     

e|-10--12--14-12~~-----10---------|--------------------------------|  
B|-------------------------12--10-|-12\----------------------------|  
G|--------------------------------|--------------------------------|  
D|--------------------------------|--------------------------------|  
A|--------------------------------|--------------------------------|  
E|--------------------------------|--------------------------------| 
		  

Full key step upFull key step up
Half key step upHalf key step up
Half key step downHalf key step down
Full key step downFull key step down
auto scroll beats size up size down change color hide chords drawings
tab show chords e-chords YouTube Clip e-chords hide all tabs e-chords go to top tab

share