Banda Calypso

Tchau Pra Você

Banda Calypso

tabs

by  JOÃO SERAFINI

save to print version add songbook text version e-mail correct tuner
chordsukulelecavacokeyboardtabbassdrumsharmonicaflute Guitar Pro
close

there isn't a video lesson for this song

chords

Tchau Pra Você

Year: 2006 - Album: Pelo Brasil

	  		Tchau Pra você 
Tom: F#m 
Intro: F#m D A E 
 
Riff 01 
 
E|----5-5-5----5----------------------------------------------------------- 
B|------------------------------------------------------------------------- 
G|-----------8---8---------------------------------------------------------  3x 
D|-------------------------------------------------------------------------   
A|------------------------------------------------------------------------- 
E|------------------------------------------------------------------------- 
 
Riff 02 
 
E|------------------------------------------------------------------------- 
B|----8--------8--------8-----------8----------------8--------------------- 
G|--------------------------------------------9-8-9------------------------   
D|-------------------------------------------9-----------------------------   
A|------10-9--------------10-9--------10-9-8------------------------------- 
E|---------------10-9----------10-9---------------------------------------- 
 
E|------------------------------------------------------------------------- 
B|----8--------8--------8-----------8----------------8--------------------- 
G|--------------------------------------------9-8-9-------------9-7--------   
D|-------------------------------------------9----------------9------------   
A|------10-9--------------10-9--------10-9-8-----------10-9-9-------------- 
E|---------------10-9----------10-9---------------------------------------- 
 
Riff 03 
 
E|------------------------------------------------------------------------- 
B|----8--------8----------------------------------------------------------- 
G|-------------------------------------------------------------------------   
D|-------------------------------------------------------------------------   
A|------10-------10-12----------------------------------------------------- 
E|---------10-------------------------------------------------------------- 
 
Riff 04  
 
E|------------------------------------------------------------------------- 
B|----8--------8--------8-----------8----------------8--------------------- 
G|--------------------------------------------9-8-9-------------9----------   
D|-------------------------------------------9----------------9------------   
A|------10-9--------------10-9--------10-9-8-----------10-9-9-------------- 
E|---------------10-9----------10-9---------------------------------------- 
 
E|------------------------------------------------------------------------- 
B|------------------------------------------------------------------------- 
G|----9-10-11----------10---------10-11-------10h11------------------------ 
D|-------------------------------------------------------------------------   
A|------------11-10-9-----11-10-9-------11-10------------------------------ 
E|------------------------------------------------------------------------- 
 
Tom: F#m 
Intro: F#m D A E 
"Na introdução, executar seguidamente o RIFF 01 e o RIFF 02" 
 
F#m 
Eu não jogo mais conversa fora 
D 
Desta vez me decidi 
       A                                   E 
O seu caso é complicado e não tem mais conserto 
F#m                                           D  
Quer transformar a minha vida numa novela de TV 
         A                     E   (A - D)  
Onde o ciúme é o dono da situação 
            F#m           D 
Tô de saco cheio não dá mais pra aturar 
           A        E  (A - D) 
A sua maldita obsessão 
             F#m               D 
Eu bem que tentei por várias vezes conversar 
              A                   E  (A - D) 
Mas você só vinha com 4 pedra na mão 
 
A                                         D  | 
Meu amor, arrumei as malas porque vou viajar |  
           G          A                      | 
Tchau, Good Bye pra você                     | 
                                       D     | Refrão 
Nova York, Cuba, Tókio pra qualquer lugar    | Durante o Refrão, 
      G         F#m                          | Executar Riff 03 
Bem longe de você                            | 
                                             | 
Uou, Uou, Uou, Uou (Riff 04)                 | 
                                              
 
 

		  

Full key step upFull key step up
Half key step upHalf key step up
Half key step downHalf key step down
Full key step downFull key step down
hide glossary

See also:

tabs Banda Calypso - Não, Não(ver.2) tabs Banda Calypso - Isso é Calypso tabs Banda Calypso - Lambada Complicada tabs Banda Floribella - Porque tabs Banda Calypso - Deusa da paixão tabs Banda Calypso - Deusa da paixão (ao vivo)
e-chords

Other versions:

tabs Banda Calypso - Tchau Pra Você
auto scroll beats size up size down change color hide chords drawings
tab show chords e-chords YouTube Clip e-chords hide all tabs e-chords go to top tab

share