Balance And Composure

Waiting Thinking Giving Up

Balance And Composure

tabs

by  IRONPOWER4EVER

save to print version add songbook text version e-mail correct tuner
chordsukulelecavacokeyboardtabbassdrumsharmonicaflute Guitar Pro
close

there isn't a video lesson for this song

chords

Waiting Thinking Giving Up

	  		 

Tuning: standard  

verse 1  
Guitar 1  

e|---------------------------------------------------------------------------| 
B|--1--1--3--3--5--5--8--8--10--10--12--12--15--15--17--17-------------------|  X 4   
G|---0--0--0--0--0--0--0--0---0---0---0---0---12--12--12---0-----------------| 
D|---------------------------------------------------------------------------| 
A|---------------------------------------------------------------------------| 
E|---------------------------------------------------------------------------| 
 Guitar 2  
   C                        C                                       Em (changes to G 4th repeat)  
e|---------------------------------------------------------------------------| 
B|-1------------------------1------------------------------------------------| 
G|-0------------------------0------------------------------------------------| 
D|-2------------------------2---------------------------------------2--------| 
A|-3------------------------3---------------------------------------2--------|  
E|---------------------------------------------------------------------------| 

Bridge: 1:03  
Guitar 1  
e|------7--8-----7--8----7--8--8/10--8--7--8---------------------------------| 
B|---6--------5-------8------------------------------------------------------| 
G|---------------------------------------------------------------------------| 
D|---------------------------------------------------------------------------| 
A|---------------------------------------------------------------------------| 
E|---------------------------------------------------------------------------| 
                                                                                } repeat X2 
e|------7--8----10--8-----7--8-----------------------------------------------| 
B|---6-------8---------8-----------------------------------------------------| 
G|---------------------------------------------------------------------------| 
D|---------------------------------------------------------------------------| 
A|---------------------------------------------------------------------------|  
E|---------------------------------------------------------------------------| 

Pre-Chorus 1:33  
Guitar 2 
    F            A G A       F 
e|---------------------------------------------------------------------------| 
B|---------------------------------------------------------------------------| 
G|---------------------------------------------------------------------------| 
D|--3-3-3--x-x---7-5-7--x-x--3-3-3----5/7-5/7---3-3-3------------------------| 
A|--3-3-3--x-x---7-5-7--x-x--3-3-3----5/7-5/7---3-3-3------------------------| 
E|--1-1-1--x-x---5-3-5--x-x--1-1-1----3/5-3/5---1-1-1------------------------| 

e|---------------------------------------------------------------------------| 
B|---------------------------------------------------------------------------| 
G|--5----------5-5-5---------------------------------------------------------| 
D|--5---5/7-3--5-5-5--5-5-5--7-7-7-------------------------------------------| 
A|--3---5/7-3--3-3-3--5-5-5--7-7-7-------------------------------------------| 
E|------3/5-5---------3-3-3--5-5-5-------------------------------------------| 

Chorus: 1:47 
Guitar 2  

e|---------------------------------------------------------------------------| 
B|---------------------------------------------------------------------------| 
G|-----------5-------------------------5-------------------------------------| 
D|---3-------5-X8---5------7---3-------5-X8---5------------------------------|   
A|---3-X8----3------5-X16--7---3-X8----3------5-X8---------------------------| 
E|---1--------------3------5---1--------------3------------------------------| 

Post Chorus: 1:59 
Guitar 1 

e|-----------13-12-10-8--------------13/14----14/16--------------------------| 
B|--6-6--6-6------------8-8--8-8-----------13-------14-13--------------------| 
G|---------------------------------------------------------------------------| 
D|---------------------------------------------------------------------------| X2 
A|---------------------------------------------------------------------------| 
E|---------------------------------------------------------------------------| 

Guitar 2:  

e|---------------------------------------------------------------------------| 
B|---------------------------------------------------------------------------| 
G|---------5---5----4-4--------------4-4-4-4--2-2----------------------------| 
D|--3-3----5-5-5-5--5-5--x-x--x-x----5-5-5-5--3-3----------------------------| 
A|--3-3----3-5-3-5--5-5--x-x--x-x----5-5-5-5--3-3----------------------------| 
E|--1-1------3---3--3-3--x-x--x-x----3-3-3-3--1-1----------------------------| 

e|---------------------------------------------------------------------------| 
B|---------------------------------------------------------------------------| 
G|--------5---------4-4------------------------------------------------------| 
D|--3-3---5--5/7-7--5-5--x-x--x-x--------------------------------------------| 
A|--3-3---3--5/7-7--5-5--x-x--x-x--------------------------------------------| 
E|--1-1------3/5-5--3-3--x-x--x-x--------------------------------------------| 

verse 2: 2:11  
Guitar 1  

e|---------------------------------------------------------------------------| 
B|--3-5-1-3---5---8---8--10--12--13--15--15----------------------------------| 
G|----------0---0---0---0---0---0---0---0------------------------------------| 
D|---------------------------------------------------------------------------|  
A|---------------------------------------------------------------------------|  
E|---------------------------------------------------------------------------| 
                                                                               } repeat X2 
e|---------------------------------------------------------------------------| 
B|---3---5---8---8---10---10---13---15---15----------------------------------| 
G|-0---0---0---0---0---0---0---0---0---0-------------------------------------| 
D|---------------------------------------------------------------------------| 
A|---------------------------------------------------------------------------| 
E|---------------------------------------------------------------------------| 
  2:24  
e|---------------------------------------------------------------------------| 
B|----3---5---8---8---10---12---13--15--15/17--15----------------------------| 
G|--0---0---0---0---0---0----0-----------------------------------------------|  X4  
D|---------------------------------------------------------------------------| 
A|---------------------------------------------------------------------------| 
E|---------------------------------------------------------------------------| 

Guitar 2: 2:24  

e|---------------------------------------------------------------------------| 
B|---------------------------------------------------------------------------| 
G|---------------------------------------5-----------------------------------| X4  
D|---------------------------------5/7---5--3--------------------------------| 
A|---------------------------------5/7---3--3--------------------------------| 
E|---------------------------------3/5------1--------------------------------| 

Chorus 2: 2:49 
 Guitar 1  

e|---------------------------------------------------------------------------| 
B|---10--12--13------12--13------12--13--15--13--12--8/15--------------------| 
G|---------------10----------12----------------------------------------------| X2  
D|----------------------------------------------------------10---------------| 
A|---------------------------------------------------------------------------| 
E|---------------------------------------------------------------------------| 

Guitar 2:  

e|---------------------------------------------------------------------------| 
B|---------------------------------------------------------------------------| 
G|-----------5-------------------------5-------------------------------------| 
D|---3-------5-X8---5------7---3-------5-X8---5------------------------------|   
A|---3-X8----3------5-X16--7---3-X8----3------5-X8---------------------------| 
E|---1--------------3------5---1--------------3------------------------------| 


************************************ 

| /   slide up 
| \   slide down 
| h   hammer-on 
| p   pull-off 
| ~   vibrato 
| +   harmonic 
| x   Mute note 
| b   Bend 
| pb  Pre-bend 
| br  Bend release 
| pbr Pre-bend release 
| brb Bend release bend 

************************************ 
		  

Full key step upFull key step up
Half key step upHalf key step up
Half key step downHalf key step down
Full key step downFull key step down
auto scroll beats size up size down change color hide chords drawings
tab show chords e-chords YouTube Clip e-chords hide all tabs e-chords go to top tab

share