Bad Religion

home > Bad Religion

The Empire Strikes First Tab

Bad Religion

Difficulty: nolevelnolevel

by sabrjoao

tuner correct add songbook print version text version save to e-mail
chordsukulelecavacokeyboardtabbassdrumsharmonicsflute Guitar Pro
chords

The Empire Strikes First

  		intro 
e|-----------------| 
B|-----------------| 
G|-----------------| 
D|-----------------| 
A|-0-0-0-0-0-0-0-0-| 
E|-----------------| 

riff 1 
  Guitar 1 
e|-----------------------------| 
B|-----------------------------| 
G|---------7-7-----5-5---------| 
D|-7-7-----7-7-----5-5---5-3-5-| 
A|-7-7-----5-5-x-x-3-3-x-5-3-5-| 
E|-5-5-x-x---------------3-1-3-| 
 |                             | 
 |Guitar 2                     | 
e|-----------------------------| 
B|-----------------------------| 
G|---------7-7-----5-5---------| 
D|-7-7-----7-7-----5-5---------| 
A|-7-7-----5-5-x-x-3-3-x-2-3-2-| 
E|-5-5-x-x---------------3~~~3-| 

Chorus 
  Guitar 1 
e|---------------------------------------------------------| 
B|---------------------------------------------------------| 
G|---------------5---5-5-5-5-5---------------7---7-7-9-9-9-| 
D|-7-7-7-7-7-7-7-5---5-5-5-5-5-3---3-3-3-3-3-7---7-7-9-9-9-| 
A|-7-7-7-7-7-7-7-3---3-3-3-3-3-3---3-3-3-3-3-5---5-5-7-7-7-| 
E|-5-5-5-5-5-5-5---------------1---1-1-1-1-1---------------| 
 |                                                         | 
 |Guitar 2                                                 | 
e|---------------------------------------------------------| 
B|---------------------------------------------------------| 
G|---------------5---5-5-5-5-5---------------7---7-7-------| 
D|-7-7-7-7-7-7-7-5---5-5-5-5-5-3---3-3-3-3-3-7---7-7-2-2-2-| 
A|-7-7-7-7-7-7-7-3---3-3-3-3-3-3---3-3-3-3-3-5---5-5-2-2-2-| 
E|-5-5-5-5-5-5-5---------------1---1-1-1-1-1---------0-0-0-| 

riff 2 
  Guitar 1 
e|-----------------------------| 
B|-----------------------------| 
G|---------7-7-----5-5---------| 
D|-7-7-----7-7-----5-5---5-3-5-| 
A|-7-7-----5-5-x-x-3-3-x-5-3-5-| 
E|-5-5-x-x---------------3-1-3-| 
 |                             | 
 |Guitar 2                     | 
e|-----------------------------| 
B|-----------------------------| 
G|---------7-7-----5-5---------| 
D|-7-7-----7-7-----5-5---------| 
A|-7-7-----5-5-x-x-3-3-x-2-3-2-| 
E|-5-5-x-x---------------3~~~3-| 

Chorus 
  Guitar 1 
e|---------------------------------------------------------| 
B|---------------------------------------------------------| 
G|---------------5---5-5-5-5-5---------------7---7-7-9-9-9-| 
D|-7-7-7-7-7-7-7-5---5-5-5-5-5-3---3-3-3-3-3-7---7-7-9-9-9-| 
A|-7-7-7-7-7-7-7-3---3-3-3-3-3-3---3-3-3-3-3-5---5-5-7-7-7-| 
E|-5-5-5-5-5-5-5---------------1---1-1-1-1-1---------------| 
 |                                                         | 
 |Guitar 2                                                 | 
e|---------------------------------------------------------| 
B|---------------------------------------------------------| 
G|---------------5---5-5-5-5-5---------------7---7-7-------| 
D|-7-7-7-7-7-7-7-5---5-5-5-5-5-3---3-3-3-3-3-7---7-7-2-2-2-| 
A|-7-7-7-7-7-7-7-3---3-3-3-3-3-3---3-3-3-3-3-5---5-5-2-2-2-| 
E|-5-5-5-5-5-5-5---------------1---1-1-1-1-1---------0-0-0-| 

riff 3 
guitar 1 
e|-----------------------------| 
B|-----------------------------| 
G|---------7-7-----5-5---------| 
D|-7-7-----7-7-----5-5---5-3-5-| 
A|-7-7-----5-5-x-x-3-3-x-5-3-5-| 
E|-5-5-x-x---------------3-1-3-| 
 |                             | 
 |Guitar 2                     | 
e|-----------------------------| 
B|-----------------------------| 
G|---------7-7-----5-5---------| 
D|-7-7-----7-7-----5-5---------| 
A|-7-7-----5-5-x-x-3-3-x-2-3-2-| 
E|-5-5-x-x---------------3~~~3-| 

bridge 

  Guitar 1  
e|-----------------------------------------------| 
B|-----------------------------------------------| 
G|-----------------------------------------------| 
D|-----------------------------------------------| 
A|-0-0--3-0-3------3---3------3---3--------------| 
E|------------3--3---3---2--2---2---1--0-3---3-3-| 
 |                                               | 
 |Guitar 2                           | 
e|-----------------------------------------------| 
B|-----------------------------------------------| 
G|-----------------------------------------------| 
D|----------------------------------3~~~~5~~~~~~~| 
A|-0-0--3-0-3------3---3------3---3-3~~~~5~~~~~~~| 
E|------------3--3---3---2--2---2---1~~~~3~~~~~~~| 


solo riff 
Guitar 2 play twice 
e|---------------------------------------------------------| 
B|---------------------------------------------------------| 
G|---------------5---5-5-5-5-5---------------7---7-7-9-9-9-| 
D|-7-7-7-7-7-7-7-5---5-5-5-5-5-3---3-3-3-3-3-7---7-7-9-9-9-| 
A|-7-7-7-7-7-7-7-3---3-3-3-3-3-3---3-3-3-3-3-5---5-5-7-7-7-| 
E|-5-5-5-5-5-5-5---------------1---1-1-1-1-1---------------| 

riff 4 
Guitar 2 
e|-----------------------------------| 
B|-----------------------------------| 
G|-----------------------------------| 
D|-7-7-7-7-7-7-7-7-7-7-7-7-7-7-7-7---| 
A|-7-7-7-7-7-7-7-7-7-7-7-7-7-7-7-7---| 
E|-5-5-5-5-5-5-5-5-5-5-5-5-5-5-5-5---| 
     PM------------------------------| 

e|----------------------------------------| 
B|----------------------------------------| 
G|----------------------------------------| 
D|-7-7-7-7-7-7-7-7-7-7-7-7-7-7-7-7-| 
	  

Search Paypal
auto scroll beats size up size down change color hide chords drawings
tab show chords e-chords YouTube Clip e-chords hide all tabs e-chords go to top tab