Bad Religion

home > Bad Religion

Sanity Tab

Bad Religion

Difficulty: nolevelnolevel

tuner correct add songbook print version text version save to e-mail
chordsukulelecavacokeyboardtabbassdrummharmonicsflute Guitar Pro
chords

Sanity

Year: 1989 - Album: No Control

  		 
intro  
---------------------------------------------------------- 
---------------------------------------------------------- 
----------------------------------------------------------         2X abafado  
--7-7-7-7-7---9-9-9-9-9---10-10-10-10-10---12-12-12-12-12-        2X ˝ abafado 
--7-7-7-7-7---9-9-9-9-9---10-10-10-10-10---12-12-12-12-12- 
--5-5-5-5-5---7-7-7-7-7---8--8--8--8--8----10-10-10-10-10- 
 
versos : 
 
---------------------------------------------------------- 
---------------------------------------------------------- 
----------------------------------------------------------         1X abafado  
--7-7-7-7-7---9-9-9-9-9---10-10-10-10-10---12-12-12-12-12-         1X ˝ abafado 
--7-7-7-7-7---9-9-9-9-9---10-10-10-10-10---12-12-12-12-12- 
--5-5-5-5-5---7-7-7-7-7---8--8--8--8--8----10-10-10-10-10- 
 
refrao: 
------------------------------------------------- 
------------------------------------------------- 
-------------------------------------------------    -| 
--7-7-7-7-7---5-5-5-5-5---3-3-3-3-3---5-5-5-5-5--     |  
--7-7-7-7-7---5-5-5-5-5---3-3-3-3-3---5-5-5-5-5--     | 
--5-5-5-5-5---3-3-3-3-3---1-1-1-1-1---3-3-3-3-3--     | -2X   
                                                      | 
-----------------------------------------------       | 
-----------------------------------------------       | 
--7-7-7-7-7--5-5-5-5-5--3-3-3-3-3--2-2-2-2-2---       | 
--7-7-7-7-7--5-5-5-5-5--3-3-3-3-3--2-2-2-2-2---      - 
--5-5-5-5-5--3-3-3-3-3--1-1-1-1-1--0-0-0-0-0--- 
 
depois do refrao: 
 
------------------------------------------------- 
------------------------------------------------- 
-------------------------------------------------      1X 
--7-7-7-7-7------------5-5-5-5-5----------------- 
--7-7-7-7-7-(abafado)--5-5-5-5-5--(˝ abafado)---- 
--5-5-5-5-5------------3-3-3-3-3----------------- 
 
Base dos solos: 
 
---------------------------------------------------------- 
---------------------------------------------------------- 
----------------------------------------------------------         
--7-7-7-7-7---9-9-9-9-9---10-10-10-10-10---12-12-12-12-12-          
--7-7-7-7-7---9-9-9-9-9---10-10-10-10-10---12-12-12-12-12- 
--5-5-5-5-5---7-7-7-7-7---8--8--8--8--8----10-10-10-10-10- 
 
 
Letra: 
There's a watch in my pocket and its hands are broken 
the face is blank but the gears are turning 
confusion is a fundamental state of mind it doesn't really 
matter what I'm figuring out I'm guaranteed to wind up in 
a state of a doubt 
 
refrao 
And sanity is a full-time job 
in a world that is always changing 
and sanity is a state of mind that you believe in 
sanity 
 
there's a shadow on the wall where the paint is peeling 
my body'' 
s moving foward but my mind is reeling 
depression is a fundamental state of being it doesn't 
really mater how my day has turned out I always end up 
living in this world of doubt 
 
 
_______________________________________________________ 
ContribuišŃo: Jamil Geraldo Neto([email protected]) 

	  

Search Paypal
auto scroll beats size up size down change color hide chords drawings
tab show chords e-chords YouTube Clip e-chords hide all tabs e-chords go to top tab