Bad Religion

home > Bad Religion

Hello Cruel World Tab

Bad Religion

Difficulty: nolevelnolevel

by ang%2Dletra

tuner correct add songbook print version text version save to e-mail
chordsukulelecavacokeyboardtabbassdrumsharmonicsflute Guitar Pro
chords

Hello Cruel World

  		


    Figure 1. (Guitar 1) 
 |----------------------------------------| 
e|----------------------------------------| 
B|----------------------------------------| 
G|-7-9-9-9-9-9-9-9-9-9-9-9/12-12-11-11-11-| Repeat as many 
D|-x-x-x-x-x-x-x-x-x-x-x-x--x-x--x--x--x--| times as 
A|-5-7-7-7-7-7-7-7-7-7-7-7/10-10-9--9--9--| necessary. 
E|----------------------------------------| 


     Figure 2. (Guitar 2) 
   |----------------------------------| 
e|------------------------------------| 
B|------------------------------------| 
G|-7-9-9-9-9-9-9-9-9-5-5-5-5-7-7-7----| Repeat as many 
D|-7-9-9-9-9-9-9-9-9-5-5-5-5-7-7-7----| times as 
A|-5-7-7-7-7-7-7-7-7-3-3-3-3-5-5-5----| necessary. 
E|------------------------------------| 

Figure 1. and Figure 2. are played together through the intro and the verses. Play with  
very slight palm muting. 



Chorus: 

e|-7-7-7-7-7-7-7-7-----------------7-7-7-7-7-7-7-7----------------| 
B|-8-8-8-8-8-8-8-8-----------------8-8-8-8-8-8-8-8----------------| 
G|-9-9-9-9-9-9-9-9-5-5-5-5-7-7-7-7-9-9-9-9-9-9-9-9--6-6-6-6-4-4-4-| 
D|-9-9-9-9-9-9-9-9-5-5-5-5-7-7-7-7-9-9-9-9-9-9-9-9--7-7-7-7-5-5-5-| 
A|-7-7-7-7-7-7-7-7-3-3-3-3-5-5-5-5-7-7-7-7-7-7-7-7--7-7-7-7-5-5-5-| 
E|-x-x-x-x-x-x-x-x-----------------x-x-x-x-x-x-x-x--5-5-5-5-3-3-3-| 

e|-7-7-7-7-7-7-7-7-----------------7-7-7-7-7-7-7-7----------------| 
B|-8-8-8-8-8-8-8-8-----------------8-8-8-8-8-8-8-8----------------| 
G|-9-9-9-9-9-9-9-9-----------------9-9-9-9-9-9-9-9--5-5-5-x-7-7-7-| 
D|-9-9-9-9-9-9-9-9-5-5-5-5-7-7-7-7-9-9-9-9-9-9-9-9--5-5-5-x-7-7-7-| 
A|-7-7-7-7-7-7-7-7-5-5-5-5-7-7-7-7-7-7-7-7-7-7-7-7--3-3-3-x-5-5-5-| 
E|-x-x-x-x-x-x-x-x-3-3-3-3-5-5-5-5-x-x-x-x-x-x-x-x----------------| 

e|-7-7-7-7-7-7-7-7-----------------7-7-7---7-7-7-7-----------------| 
B|-8-8-8-8-8-8-8-8-----------------8-8-8---8-8-8-8-----------------| 
G|-9-9-9-9-9-9-9-9-6-6-6-x-4-4-4-x-9-9-9-x-9-9-9-9--6-6-6-6-4-4-4--| 
D|-9-9-9-9-9-9-9-9-7-7-7-x-5-5-5-x-9-9-9-x-9-9-9-9--7-7-7-7-5-5-5--| 
A|-7-7-7-7-7-7-7-7-7-7-7-x-5-5-5-x-7-7-7-x-7-7-7-7--7-7-7-7-5-5-5--| 
E|-x-x-x-x-x-x-x-x-5-5-5-x-3-3-3-x-x-x-x-x-x-x-x-x--5-5-5-5-3-3-3--| 
 |                                                                 | 
 |                                                                 | 
e|-----------------------------------------------------------------| 
B|-----------------------------------------------------------------| 
G|-----------------------------------------7-----------------------| 
D|--------------------------------------------9-11-----------------| 
A|-----------------------------------------------------------------| 
E|-----------------------------------------------------------------| 

e|-7-7-7-7-7-7-7-7-----------------2-2-2-2-2-2-2-2-----------------| 
B|-8-8-8-8-8-8-8-8-----------------4-4-4-4-4-4-4-4-----------------| 
G|-9-9-9-9-9-9-9-9-----------------2-2-2-2-2-2-2-2-----------------| 
D|-9-9-9-9-9-9-9-9-5-5-5-5-7-7-7-7-4-4-4-4-4-4-4-4-----------------| 
A|-7-7-7-7-7-7-7-7-5-5-5-5-7-7-7-7-2-2-2-2-2-2-2-2-----------------| 
E|-x-x-x-x-x-x-x-x-3-3-3-3-5-5-5-5-x-x-x-x-x-x-x-x-----------------| 



Solo: (Figure 1. and Figure 2. played over this). A lot of this is played very fast so  
you need to listen very carefully to the record. 

e|-17\15p12---------------------------------------------------------| 
B|------------12-14-14/15-14-15-15b(17)-15-14-12\10b~---------------| 
G|------------------------------------------------------------------| 
D|----------------------------------------------------12b(14)r(12)~-| 
A|------------------------------------------------------------------| 
E|------------------------------------------------------------------| 

e|------------------------------5----------------------------------------| 
B|--------------------8p5-5-5h8---h8p5-----------------------------------| 
G|-------------------------------------9p7----------7-4------------------| 
D|-11h12p11h12\9---------------------------h9-7b(8)-----7p5-7b-19b(P.H.)-| 
A|-----------------------------------------------------------------------| 
E|---------------12\-----------------------------------------------------| 

e|-------------------------------------------------------------10--------| 
B|-----------------------------------------------8---8-10b(12)===-10p8-8-| 
G|---------------------------------------------9---9---------------------| 
D|---------7p5-7b(8)r(7)b(8)r(7)b(8)-5---5-7-9---------------------------| 
A|-7p5-7p5-----------------------------7---------------------------------| 
E|-----------------------------------------------------------------------| 

e|---------10-12-14-12-17-12-15-12-17-12-15-12-17-12-19----17-12-15-12-| 
B|-10b(12)===-------------------------------------------17-------------| 
G|---------------------------------------------------------------------| 
D|---------------------------------------------------------------------| 
A|---------------------------------------------------------------------| 
E|---------------------------------------------------------------------| 

e|---------------| 
B|-17b(18)r(17)~-| 
G|---------------| 
D|---------------| 
A|---------------| 
E|---------------| 
 
	  

Search Paypal
auto scroll beats size up size down change color hide chords drawings
tab show chords e-chords YouTube Clip e-chords hide all tabs e-chords go to top tab