Bad Religion

home > Bad Religion

A Walk Tab

Bad Religion

Difficulty: nolevelnolevel

tuner correct add songbook print version text version save to e-mail
chordsukulelecavacokeyboardtabbassdrummharmonicsflute Guitar Pro
chords

A Walk

Year: 1996 - Album: The Gray Race

  		INTRODUÇÃO: F F

D C G A# - 2X
I'm going for a walk, not the after-dinner kind
I'm gonna use my hands and I'm gonna use my mind

D C G – 4X
And who the hell are you to tell me what to do?
You can't even tie your own haggard shoes

E F
Your closet is a mess, your backyard's falling down

G A A
And I have no grand ideas or intentions of sticking around

D C G A# - 4X
So I'm going for a walk, not the after-dinner kind
I'm gonna use my hands and I'm gonna use my mind
And I'm gonna build a world independent and exempt
All alone I'll be an empire with no mortgage and no rent

D C G – 4X
And I don't need to live in your stinking zoo
You can't even feed the animals donated to you

E F
Your storage sheds are ramshackled, flies decorate the walls

G A A
And you expect me to die here in this shit-filled tiny stall?

F F
So I'm going for a walk!

(solo)
E----------------------------------------------
B-6-6-6-5---------6----6-----------------------
G---------7-5-7-5---4~---4-5-5-4-3-3-2---------
D----------------------------------------------
A----------------------------------------------
E----------------------------------------------

E----------------------------------------------
B-6-6-6-6-5--6-5-6-5-6-5-8-5-6-5---5-6~--------
G--------------------------------5-------------
D----------------------------------------------
A----------------------------------------------
E----------------------------------------------

D C G – 4X       D C G – 4X
And I know you're watching everything I do
Call me threat to your children, call me socially unglued
Call me master of insanity, unable to relate
Call me lazy, bane, and filthy
Call me montrous reprobate

A

D C G A# - 4X
So I'm going for a walk and there's nothing you can do
Because I don't have to live like you
I'm going for a walk, going for a walk....

F F

gtr 2: 

tok as 7 primeiras notas do solo enquanto vocal fala: I´m going for a walk!
	  

Full key step upFull key step up
Half key step upHalf key step up
Half key step downHalf key step down
Full key step downFull key step down
Search Paypal
auto scroll beats size up size down change color hide chords drawings
tab show chords e-chords YouTube Clip e-chords hide all tabs e-chords go to top tab