Bad Books

The Easy Mark The Old Maid

Bad Books

tabs

by  HEBEALMEIDA

save to print version add songbook text version e-mail correct tuner
chordsukulelecavacokeyboardtabbassdrumsharmonicaflute Guitar Pro
close

there isn't a video lesson for this song

chords

The Easy Mark The Old Maid

	  		The Easy Mark & The Old Maid by Bad Books 

I learned this song by watching a video of Kevin Devine playing it solo - it matches 
the album version. 

 
 
Chords are relative to capo 

Verse: 

  Am Gadd11/B  G 

E--x---x-------3-2-| 
B--1---1-------0-0-| 
G--2---0-------0-0-| 
D--2---0-------0-0-| 
A--0---2-------x-x-| 
E--x---x-------3-3-| 

Chorus: 

   C    D   Em  G   C     G 

E--00-3-2---0-0-3---x--x--3-| 
B--11-1-3---0-0-0---5--4--0-| 
G--00-0-2---0-0-0---5--5--0-| 
D--22-2-0---2-0-0---5--5--0-| 
A--33-3-x---2-0-x---3--3--x-| 
E--xx-x-x---0-2-3---x--x--3-| 

after the second Chorus going into the bridge he slides up from the G to this chord: 

E--7-| 
B--0-| 
G--0-| 
D--0-| 
A--0-| 
E--7-| 

Bridge: 

   Em  A   C Cm 

E--7---5---x-x---3-| 
B--8---5---5-4---3-| 
G--9---6---5-5---4-| 
D--9---7---5-5---5-| 
A--7---7---3-3---5-| 
E--x---5---x-x---3-| 

second time through: 

   Em  A   C   Cm  D 

E--7---5---x---x---2-| 
B--8---5---5---4---3-| 
G--9---6---5---5---2-| 
D--9---7---5---5---0-| 
A--7---7---3---3---x-| 
E--x---5---x---x---x-| 

Ending: 
alternate your picking between the bass notes and the lead notes 

E--0-2-3-0-3---xx-x-3--| 
B--0-----------55-4-3--| 
G--0-----------55-5-4--| X4 
D--0-----------xx-x-5--| 
A--x-----------xx-x-5--| 
E--3-3-3-3-3---33-3-3--| 
		  

Full key step upFull key step up
Half key step upHalf key step up
Half key step downHalf key step down
Full key step downFull key step down
hide glossary

See also:

tabs Michael Jackson - Heal The World tabs Black Eyed Peas - Pump it (solo) tabs Lindsay Lohan - Take me away tabs Decode Acoustic - Paramore tabs Reo Speedwagon - Take it on the Run tabs Justin Timberlake - Rock Your Body
e-chords

Other versions:

tabs Bad Books - The Easy Mark The Old Maid
auto scroll beats size up size down change color hide chords drawings
tab show chords e-chords YouTube Clip e-chords hide all tabs e-chords go to top tab

share