Bach

home > Bach

Jesu Joy of Man's Desiring Tab

Bach

Difficulty: EasyEasy

by celondir

tuner correct add songbook print version text version save to e-mail
chordsukulelecavacokeyboardtabbassdrumsharmonicsflute Guitar Pro
chords

Jesu Joy of Man's Desiring

  		Jesu Joy of Man's Desiring 
 
 
Tuning : E B G D A E  
 
E |----------------------------0---|----------------3-----2----3----------------------------| 
B |--------------0---3--1--1-------|----3------3---------------------3----0-----------------| 
G |--------0--2--0-----------------|--------------------------------------------0----2------| 
D |------------------------2-------|----2----------------------2----------------------------| 
A |--------------------------------|-----------2--------------------------------------------| 
E |----3---------------------------|--------------------------------------------0-----------| 
 
 
  |----------------------------------0------------------------------------------------------| 
  |--0------------1---------3-----------------3--------1--------0-----------------0---------| 
  |----------------------------------------------------------------------2------------------| 
  |-----------------------------------------------------------------------------------------| 
  |---------------0---------------------------2--------------------------3------------------| 
  |--0--------------------------------------------------------------------------------------| 
 
  |-----------------------------------------------------------------------------------------| 
  |----------------------------------------------------------------------1--------0---------| 
  |--0----------------------0--------2--------------------------2---------------------------| 
  |---------------4---------------------------0--------4-----------------0------------------| 
  |--3------------5-------------------------------------------------------------------------| 
  |-------------------------------------------2---------------------------------------------| 
 
  |-------------------------------------------------------------------------------0---------| 
  |-------------------------------------------0--------3--------1--------1------------------| 
  |--2------------4---------0--------2------------------------------------------------------| 
  |--0----------------------------------------2---------------------------------------------| 
  |----------------------------------------------------------------------3------------------| 
  |---------------3-------------------------------------------------------------------------| 
 
  |-------------------------3--------2--------3---------------------------------------------| 
  |--3------------3------------------------------------3--------0---------------------------| 
  |----------------------------------------------------------------------0--------2---------| 
  |-------------------------------------------2--------------------------0------------------| 
  |--3------------2-------------------------------------------------------------------------| 
  |-----------------------------------------------------------------------------------------| 
 
  |-----------------------------------------------------------------------------------------| 
  |--0----------------------3--------1------------------------------------------------------| 
  |---------------2---------------------------4--------2--------0-----------------0---------| 
  |--0-------------------------------------------------------------------0------------------| 
  |---------------3---------------------------4--------------------------5------------------| 
  |-----------------------------------------------------------------------------------------| 
 
  |-----------------------3-------------------------|-------3-------------------------------| 
  |-------------0----3---------3----0---------0-----|--3----0----------------------1--------| 
  |--------0------------------------0----0----------|-------0----------------------0--------| 
  |--4-----------------------------------0----------|-------------------4----------2--------| 
  |--5----------------------------------------------|--2------------------------------------| 
  |--------3----------------------------------------|-------3-------------------------------| 
 
  |--------------------------------------------|--------------------------------------------| 
  |--1------3-------------------------3--------|--3------1-------------------------0--------| 
  |--0------2------------0---------------------|---------0------------2------------0--------| 
  |--2------4------------2------------4--------|--4------2------------0------------0--------| 
  |-----------------------------------5--------|--5-----------------------------------------| 
  |--------------------------------------------|---------0------------2------------3--------| 
 
  |------------------------------------------------------|----------------------------------| 
  |--0--------------------------------------------1------|--0---1-------------------1--0----| 
  |--0--------2-------------------2----0-----2-----------|---------2-------------2----------| 
  |--0-----4------0----2----4----------0-----0-----------|--0---0------4--0--4------0-------| 
  |--------5----------------5----------------------------|----------------5-----------------| 
  |--3---------------------------------------------------|----------------------------------| 
 
  |-------------------------------------------------------------------------------0---------| 
  |-------------------------------------------0--------3--------1--------1------------------| 
  |--2------------4---------0--------2------------------------------------------------------| 
  |--0--------------------------------------------------------------------------------------| 
  |-----------------------------------------------------------------------------------------| 
  |---------------3---------------------------2--------------------------0------------------| 
 
  |-------------------------3--------2--------3---------------------------------------------| 
  |--3------------3------------------------------------3--------0---------------------------| 
  |----------------------------------------------------------------------0--------2---------| 
  |-----------------------------------------------------------------------------------------| 
  |---------------2---------------------------2---------------------------------------------| 
  |--0-------------------------------------------------------------------0------------------| 
 
  |-----------------------------------------------------------------------------------------| 
  |--0----------------------3--------1--------0---------------------------------------------| 
  |---------------2------------------------------------2--------0-----------------0---------| 
  |-------------------------------------------0--------------------------0------------------| 
  |---------------3------------------------------------------------------5------------------| 
  |--0--------------------------------------------------------------------------------------| 
 
  |-------------------------------------------------------------------------------0---------| 
  |-------------------------0-----------------0--------3--------1--------1------------------| 
  |---------------0------------------2--------0---------------------------------------------| 
  |--4-------------------------------------------------------------------2------------------| 
  |--5--------------------------------------------------------------------------------------| 
  |---------------3-------------------------------------------------------------------------| 
 
  |-------------------------3--------2--------3---------------------------------------------| 
  |--3------------3------------------------------------3--------0---------------------------| 
  |----------------------------------------------------------------------0--------2---------| 
  |--2----------------------------------------2---------------------------------------------| 
  |---------------2-------------------------------------------------------------------------| 
  |----------------------------------------------------------------------0------------------| 
 
  |----------------------------------0------------------------------------------------------| 
  |--0------------1---------3-----------------3--------1--------0-----------------0---------| 
  |----------------------------------------------------------------------2------------------| 
  |-----------------------------------------------------------------------------------------| 
  |---------------0---------------------------2--------------------------3------------------| 
  |--0--------------------------------------------------------------------------------------| 
 
  |-----------------------------------------------------------------------------------------| 
  |----------------------------------------------------------------------1--------0---------| 
  |--0----------------------0--------2--------------------------2---------------------------| 
  |---------------4---------------------------0--------4-----------------0------------------| 
  |--3------------5-------------------------------------------------------------------------| 
  |-------------------------------------------2---------------------------------------------| 
 

	  

Full key step upFull key step up
Half key step upHalf key step up
Half key step downHalf key step down
Full key step downFull key step down
Search Paypal
auto scroll beats size up size down change color hide chords drawings
tab show chords e-chords YouTube Clip e-chords hide all tabs e-chords go to top tab