Babymetal

Shanti Shanti Shanti

Babymetal

tabs

by  PAULLET3

save to print version add songbook text version e-mail correct tuner
chordsukulelecavacokeyboardtabbassdrumsharmonicaflute Guitar Pro
close

there isn't a video lesson for this song

chords

Shanti Shanti Shanti

	  		Tuning: Standard 7-string 

Intro 

e|--------------------------------------------------------------| 
b|---------7-8-10----8-10-11--10--8--7-----7-8-8--7-------------| 
G|-/7-------------------------------------------------8--7--\5--| 
D|--------------------------------------------------------------| 
A|--------------------------------------------------------------| 
E|--------------------------------------------------------------| 
B|--------------------------------------------------------------| 

e|--------------------------------------/10-10--9---------------| 
b|---------7-8-10----8-10-11--10--8--7-------------11---10------| 
G|-/7-------------------------------------------------------12\-| 
D|--------------------------------------------------------------| 
A|--------------------------------------------------------------| 
E|--------------------------------------------------------------| 
B|--------------------------------------------------------------| 

e|--------------------------------------------------------------| 
b|--------------------------------------------------------------| 
G|--------------------------------------------------------------| 
D|--------------------------------------------------------------| 
A|--5--------------------------------5--------------------------| 
E|--5--------------------------------5--------------------------| 
B|--3--------------------------------3--------------------------| 

verse 1 

e|---------------------------------------------------------------------| 
b|---------------------------------------------------------------------| 
G|---------------------------------------------------------------------| 
D|----------------------------------5---5---5---5-5-8---8---10--10-10\-| 
A|-\5---5---5---5-5-3---3---3---3-3-5---5---5---5-5-8---8---10--10-10\-| 
E|-\5---5---5---5-5-3---3---3---3-3-3---3---3---3-3-6---6---8---8--8-\-| 
B|-\3---3---3---3-3-1---1---1---1-1------------------------------------| 

e|---------------------------------------------------------------------| 
b|---------------------------------------------------------------------| 
G|---------------------------------------------------------------------| 
D|----------------------------------5---5---5---5-5--------------------| 
A|-\5---5---5---5-5-3---3---3---3-3-5---5---5---5-5--------------------| 
E|-\5---5---5---5-5-3---3---3---3-3-3---3---3---3-3--------------------| 
B|-\3---3---3---3-3-1---1---1---1-1------------------------------------| 

Chorus Lead 

e|-----------------------------------------/10---------------------------------------| 
b|---------7-8-10----8-10-11--10--8-8\7-7-------11--10---10-11-13---11---10----------| 
G|-4-5-7--------------------------------------------------------------------10-10-10-| 
D|-----------------------------------------------------------------------------------| 
A|-----------------------------------------------------------------------------------| 
E|-----------------------------------------------------------------------------------| 
B|-----------------------------------------------------------------------------------| 

e|-----------------------------------------/10---------------------------------------| 
b|---------7-8-10----8-10-11--10--8-8\7-7-------11--10\------------------------------| 
G|-4-5-7-----------------------------------------------------------------------------| 
D|-----------------------------------------------------------------------------------| 
A|-----------------------------------------------------------------------------------| 
E|-----------------------------------------------------------------------------------| 
B|-----------------------------------------------------------------------------------| 

Chorus Rhythm 

e|-----------------------------------------------------------------------------------| 
b|-----------------------------------------------------------------------------------| 
G|--------------------------------7-------------------10-----------------------------| 
D|------------7---------5---5---5-7---5---5-8---8---8-10-8---8-10--10--10------------| 
A|-\5---5---5-7---5---5-5---5---5-5---5---5-8---8---8-8--8---8-10--10--10-8----------| 
E|-\5---5---5-5---5---5-3---3---3-----3---3-6---6---6----6---6-8---8---8--8----------| 
B|-\3---3---3-----3---3---------------------------------------------------6----5h6p5-| 

e|-----------------------------------------------------------------------------------| 
b|-----------------------------------------------------------------------------------| 
G|--------------------------------7-------------------10-----------------------------| 
D|------------7---------5---5---5-7---5---5-8---8---8-10-8---8-----------------------| 
A|-\5---5---5-7---5---5-5---5---5-5---5---5-8---8---8-8--8---8-----------------------| 
E|-\5---5---5-5---5---5-3---3---3-----3---3-6---6---6----6---6-----------------------| 
B|-\3---3---3-----3---3--------------------------------------------------------------| 

verse 2 

e|----------------------------------------------------------------------------------------| 
b|----------------------------------------------------------------------------------------| 
G|----------------------------------------------------------------------------------------| 
D|----------------------------------------------------------------------------------------| 
A|-------------------------------------5h6p5--------------------------------------5h6p5---| 
E|------------------------2h3p2-------------6p5------------------------2h3p2-----------6p5| 
B|-1-3---1-3---1-3---1-3-------3----------------1-3---1-3---1-3---1-3-------3-------------| 

e|----------------------------------------------------------------------------------------| 
b|----------------------------------------------------------------------------------------| 
G|----------------------------------------------------------------------------------------| 
D|------------------------------------------------------------------------8---10----------| 
A|-------------------------------------5h6p5------------------------------8---10----------| 
E|------------------------2h3p2-------------6p5---------------------------6---8-----------| 
B|-1-3---1-3---1-3---1-3-------3----------------1-3---1-3---1-3---1-3---------------------| 

e|---------------------------------------------------------------------| 
b|---------------------------------------------------------------------| 
G|---------------------------------------------------------------------| 
D|----------------------------------5---5---5---5-5-8---8---10--10-10\-| 
A|-\5---5---5---5-5-3---3---3---3-3-5---5---5---5-5-8---8---10--10-10\-| 
E|-\5---5---5---5-5-3---3---3---3-3-3---3---3---3-3-6---6---8---8--8-\-| 
B|-\3---3---3---3-3-1---1---1---1-1------------------------------------| 

e|---------------------------------------------------------------------| 
b|---------------------------------------------------------------------| 
G|---------------------------------------------------------------------| 
D|----------------------------------5---5---5---5-5--------------------| 
A|-\5---5---5---5-5-3---3---3---3-3-5---5---5---5-5--------------------| 
E|-\5---5---5---5-5-3---3---3---3-3-3---3---3---3-3--------------------| 
B|-\3---3---3---3-3-1---1---1---1-1------------------------------------| 

Chorus lead 

e|-----------------------------------------/10---------------------------------------| 
b|---------7-8-10----8-10-11--10--8-8\7-7-------11--10---10-11-13---11---10----------| 
G|-4-5-7--------------------------------------------------------------------10-10-10-| 
D|-----------------------------------------------------------------------------------| 
A|-----------------------------------------------------------------------------------| 
E|-----------------------------------------------------------------------------------| 
B|-----------------------------------------------------------------------------------| 

e|-----------------------------------------/10---------------------------------------| 
b|---------7-8-10----8-10-11--10--8-8\7-7-------11--10\------------------------------| 
G|-4-5-7-----------------------------------------------------------------------------| 
D|-----------------------------------------------------------------------------------| 
A|-----------------------------------------------------------------------------------| 
E|-----------------------------------------------------------------------------------| 
B|-----------------------------------------------------------------------------------| 

Chorus Rhythm 

e|-----------------------------------------------------------------------------------| 
b|-----------------------------------------------------------------------------------| 
G|--------------------------------7-------------------10-----------------------------| 
D|------------7---------5---5---5-7---5---5-8---8---8-10-8---8-10--10--10------------| 
A|-\5---5---5-7---5---5-5---5---5-5---5---5-8---8---8-8--8---8-10--10--10-8----------| 
E|-\5---5---5-5---5---5-3---3---3-----3---3-6---6---6----6---6-8---8---8--8----------| 
B|-\3---3---3-----3---3---------------------------------------------------6----5h6p5-| 

e|-----------------------------------------------------------------------------------| 
b|-----------------------------------------------------------------------------------| 
G|--------------------------------7-------------------10-----------------------------| 
D|------------7---------5---5---5-7---5---5-8---8---8-10-8---8-----------------------| 
A|-\5---5---5-7---5---5-5---5---5-5---5---5-8---8---8-8--8---8-----------------------| 
E|-\5---5---5-5---5---5-3---3---3-----3---3-6---6---6----6---6-----------------------| 
B|-\3---3---3-----3---3--------------------------------------------------------------| 


Bridge 

e|----------------------------------------------------------------------------------------------------------| 
b|------------------------------------------13--------------------------------------------------13----------| 
G|-----14--12------12--12-14-----14--12--14---14-12--------14--12-----12--12-14---------12--14-----14-12----| 
D|-12----------15----15------12---------------------15-12----------15---15------12--15-------------------15-| 
A|----------------------------------------------------------------------------------------------------------| 
E|----------------------------------------------------------------------------------------------------------| 
B|----------------------------------------------------------------------------------------------------------| 

e|----------------------------------------------------------------------------------------------------------| 
b|------------------------------------------13----------------------------------15--------------13----13-13-| 
G|-----14--12------12--12-14-----14--12--14---14-12--------14--12-----12--12-14-----14--12--14-----14-------| 
D|-12----------15----15------12---------------------15-12----------15---15----------------------------------| 
A|----------------------------------------------------------------------------------------------------------| 
E|----------------------------------------------------------------------------------------------------------| 
B|----------------------------------------------------------------------------------------------------------| 

       * * * *     * * * * * * * *     * * * *     * * * * * * * * 
e|-----------------------------------------------------------------------------------| 
b|-----------------------------------------------------------------------------------| 
G|-----------------------------------------------------------------------------------| 
D|-----------------------------------------------------------------------------------| 
A|-3h5-5-5-5-5-3h5-5-5-5-5-5-5-5-5-3h5-5-5-5-5-3h5-5-5-5-5-5-5-5-5-------------------| 
E|-----------------------------------------------------------------------------------| 
B|-----------------------------------------------------------------------------------| 

verse 3 

e|---------------------------------------------------------------------| 
b|---------------------------------------------------------------------| 
G|---------------------------------------------------------------------| 
D|----------------------------------5---5---5---5-5-8---8---10--10-10\-| 
A|-\5---5---5---5-5-3---3---3---3-3-5---5---5---5-5-8---8---10--10-10\-| 
E|-\5---5---5---5-5-3---3---3---3-3-3---3---3---3-3-6---6---8---8--8-\-| 
B|-\3---3---3---3-3-1---1---1---1-1------------------------------------| 

e|---------------------------------------------------------------------| 
b|---------------------------------------------------------------------| 
G|---------------------------------------------------------------------| 
D|----------------------------------5---5---5---5-5--------------------| 
A|-\5---5---5---5-5-3---3---3---3-3-5---5---5---5-5--------------------| 
E|-\5---5---5---5-5-3---3---3---3-3-3---3---3---3-3--------------------| 
B|-\3---3---3---3-3-1---1---1---1-1------------------------------------| 

       * * * *       * * *               * * * * 
e|---------------------------------------------------------------------| 
b|-------------6p5-----------------------------------------------------| 
G|-5h7-7-7-7-7-----7-7-7-7-5h7p5-----5h7-7-7-7-7-5h7-------------------| 
D|-------------------------------7-5-----------------------------------| 
A|---------------------------------------------------------------------| 
E|---------------------------------------------------------------------| 
B|---------------------------------------------------------------------| 

Chorus lead 

e|-----------------------------------------/10---------------------------------------| 
b|---------7-8-10----8-10-11--10--8-8\7-7-------11--10---10-11-13---11---10----------| 
G|-4-5-7--------------------------------------------------------------------10-10-10-| 
D|-----------------------------------------------------------------------------------| 
A|-----------------------------------------------------------------------------------| 
E|-----------------------------------------------------------------------------------| 
B|-----------------------------------------------------------------------------------| 

e|-----------------------------------------/10---------------------------------------| 
b|---------7-8-10----8-10-11--10--8-8\7-7-------11--10---10-11-13---11---10----------| 
G|-4-5-7--------------------------------------------------------------------10-10-10-| 
D|-----------------------------------------------------------------------------------| 
A|-----------------------------------------------------------------------------------| 
E|-----------------------------------------------------------------------------------| 
B|-----------------------------------------------------------------------------------| 

e|-----------------------------------------/10---------------------------------------| 
b|---------7-8-10----8-10-11--10--8-8\7-7-------11--10---10-11-13---11---10----------| 
G|-4-5-7--------------------------------------------------------------------10-10-10-| 
D|-----------------------------------------------------------------------------------| 
A|-----------------------------------------------------------------------------------| 
E|-----------------------------------------------------------------------------------| 
B|-----------------------------------------------------------------------------------| 

e|-----------------------------------------/10---------------------------------------| 
b|---------7-8-10----8-10-11--10--8-8\7-7-------11--10\------------------------------| 
G|-4-5-7-----------------------------------------------------------------------------| 
D|-----------------------------------------------------------------------------------| 
A|-----------------------------------------------------------------------------------| 
E|-----------------------------------------------------------------------------------| 
B|-----------------------------------------------------------------------------------| 

Chorus Rhythm 

e|-----------------------------------------------------------------------------------| 
b|-----------------------------------------------------------------------------------| 
G|--------------------------------7-------------------10-----------------------------| 
D|------------7---------5---5---5-7---5---5-8---8---8-10-8---8-10--10--10------------| 
A|-\5---5---5-7---5---5-5---5---5-5---5---5-8---8---8-8--8---8-10--10--10-8----------| 
E|-\5---5---5-5---5---5-3---3---3-----3---3-6---6---6----6---6-8---8---8--8----------| 
B|-\3---3---3-----3---3---------------------------------------------------6----5h6p5-| 

e|-----------------------------------------------------------------------------------| 
b|-----------------------------------------------------------------------------------| 
G|--------------------------------7-------------------10-----------------------------| 
D|------------7---------5---5---5-7---5---5-8---8---8-10-8---8-10--10--10------------| 
A|-\5---5---5-7---5---5-5---5---5-5---5---5-8---8---8-8--8---8-10--10--10-8----------| 
E|-\5---5---5-5---5---5-3---3---3-----3---3-6---6---6----6---6-8---8---8--8----------| 
B|-\3---3---3-----3---3---------------------------------------------------6----5h6p5-| 

e|-----------------------------------------------------------------------------------| 
b|-----------------------------------------------------------------------------------| 
G|--------------------------------7-------------------10-----------------------------| 
D|------------7---------5---5---5-7---5---5-8---8---8-10-8---8-10--10--10------------| 
A|-\5---5---5-7---5---5-5---5---5-5---5---5-8---8---8-8--8---8-10--10--10-8----------| 
E|-\5---5---5-5---5---5-3---3---3-----3---3-6---6---6----6---6-8---8---8--8----------| 
B|-\3---3---3-----3---3---------------------------------------------------6----5h6p5-| 

e|-----------------------------------------------------------------------------------| 
b|-----------------------------------------------------------------------------------| 
G|--------------------------------7-------------------10-----------------------------| 
D|------------7---------5---5---5-7---5---5-8---8---8-10-8---8-----------------------| 
A|-\5---5---5-7---5---5-5---5---5-5---5---5-8---8---8-8--8---8-----------------------| 
E|-\5---5---5-5---5---5-3---3---3-----3---3-6---6---6----6---6-----------------------| 
B|-\3---3---3-----3---3--------------------------------------------------------------| 



************************************ 

| /  Slide up 
| \  Slide down 
| h  Hammer-on 
| p  Pull-off 

************************************ 
		  

See also:

tabs Black Mages - Those Who Fight Further tabs Babymetal - From Dusk Till Dawn tabs Black Mages - Dancing Mad (solo) tabs Black Mages - Vamo Alla Flamenco tabs Babymetal - Shanti Shanti Shanti tabs Babymetal - Ijime Dame Zettai
e-chords

Other versions:

tabs Babymetal - Shanti Shanti Shanti
auto scroll beats size up size down change color hide chords drawings
tab show chords e-chords YouTube Clip e-chords hide all tabs e-chords go to top tab

share