Babes In Toyland

Say What You Want

Babes In Toyland

tabs

by  FERNSANTANA

save to print version add songbook text version e-mail correct tuner
chordsukulelecavacokeyboardtabbassdrumsharmonicaflute Guitar Pro
close

there isn't a video lesson for this song

chords

Say What You Want

	  		(intro) 
E|-------------| 
B|-12-12-12-12-| 
G|-12-12-12-12-| 
D|-------------| 
A|-------------| 
E|-------------| 

(verso) 
E|---------------------| 
B|---------------------| 
G|---3---3---3---4-----| 
D|---4---4---4---5-----| 
A|---4---4---4---5-----| 
E|-0-2--02--02--03-000-| 
 pm.    .   .   .  ... 

(Refrão) 
E|-------------| 
B|-------------| 
G|-------------| 
D|-22222-8-7~~-| 
A|-22222-8-7~~-| 
E|-00000-6-5~~-| 
 pm..... 

(solo) 
E|--------------------------------------------------------------------- 
B|--------------------------------------------------------------------- 
G|--------------------------------------------------------------------- 
D|-------8--8-9-11-9-8--9-11-12^^--------8--8-9-11-9-8--9-11-9-8------- 
A|-9--9----------------------------9--9--------------------------10-9-- 
E|--------------------------------------------------------------------- 

E|-------------------------------------------------| 
B|-------------------------------------------------| 
G|-----------15--15-16-18-16-15--16-18-16-15-------| 
D|-///16--16---------------------------------17-16-| 
A|-------------------------------------------------| 
E|-------------------------------------------------| 
		  

See also:

tabs Misc Computer Games - Pokemon - Blue/red - Lavender Town tabs Los Indios Tacunau - Quiero Ser Tu Sombra tabs Misc Television - Thomas The Tank Engine Theme tabs Misc Computer Games - Far Cry 3 - Ukulele Girl tabs La Trampa - Vendas En El Corazon tabs Idir - A Vava Inouva
e-chords

Other versions:

tabs Babes In Toyland - Say What You Want
auto scroll beats size up size down change color hide chords drawings
tab show chords e-chords YouTube Clip e-chords hide all tabs e-chords go to top tab

share