Babes In Toyland

Right Now

Babes In Toyland

tabs

by  FERNSANTANA

save to print version add songbook text version e-mail correct tuner
chordsukulelecavacokeyboardtabbassdrumsharmonicaflute Guitar Pro
close

there isn't a video lesson for this song

chords

Right Now

	  		|-0-0-0-3-0-0-8-8-8-7--8-8-8-7-| 

(Refrão) 
E|-----------------------------| 
B|-----------------------------| 
G|-------4-4-6-6--------4-4----| 
D|-4-6-6-4-4-6-6--4-6-6-4-4-4--| 
A|-4-6-6-2-2-4-4--4-6-6-2-2-4--| 
E|-2-4-4----------2-4-4-----2--| 

(verso 2) 
E|-----------------------| 
B|-0-0-0-0-3p0-6-6-5-6-5-| 
G|-----------------------| 
D|-----------------------| 
A|-----------------------| 
E|-----------------------| 

(ponte 2x) 
E|---------------------------------| 
B|-0-0-5-0-6-5-6-5-8-6-5-----------| 
G|-------------------------2-3-4-4-| 
D|-------------------------2-3-4-4-| 
A|-------------------------0-1-2-2-| 
E|---------------------------------| 

E|------------------------------------------------------| 
B|-0-0-5-0-6-5-6-5-8-6-5---0-0-5-6-5-6-6-8-6-5----------| 
G|----------------------------------------------2-3-4-4-| 
D|----------------------------------------------2-3-4-4-| 
A|----------------------------------------------0-1-2-2-| 
E|------------------------------------------------------| 
		  

See also:

tabs Idir - A Vava Inouva tabs Misc Computer Games - Mii Channel Music tabs Prototype - The Way It Ends tabs Misc Television - Marvels The Punisher - Main Theme tabs Misc Computer Games - Assassins Creed Black Flag - Randy Dandy O tabs Andy James - Separation
e-chords

Other versions:

tabs Korn - Right Now tabs SR-71 - Right Now tabs Van Halen - Right now tabs Babes In Toyland - Right Now tabs Dirty Projectors - Right Now tabs Fades Away - Right Now (we'll Stand)
auto scroll beats size up size down change color hide chords drawings
tab show chords e-chords YouTube Clip e-chords hide all tabs e-chords go to top tab

share