Babes In Toyland

Real Eyes

Babes In Toyland

tabs

by  FERNSANTANA

save to print version add songbook text version e-mail correct tuner
chordsukulelecavacokeyboardtabbassdrumsharmonicaflute Guitar Pro
close

there isn't a video lesson for this song

chords

Real Eyes

	  		(intro) 

E|-------4/16---------| 
B|-------5/17---------| 
G|---1--------1~------| 
D|--2-2-----------2~--| 
A|----------------2~--| 
E|----------------0~--| 
                  E5 

(verso) 
E|-------------------------------------------| 
B|-------------------------------------------| 
G|-------------------------------------------| 
D|--2222-2222-2222-2222-6666-6666-6666-6666--| 
A|--2222-2222-2222-2222-6666-6666-6666-6666--| 
E|--0000-0000-0000-0000-4444-4444-4444-4444--| 

(Refrão) 
E|---------------------------------------| 
B|---------------------------------------| 
G|-----------444-4444----------222-2222--| 
D|--555-5555-444-4444-444-4444-222-2222--| 
A|--555-5555-222-2222-444-4444-000-0000--| 
E|--333-3333----------222-2222-----------| 

(ponte) 
E|---------------------------| 
B|---------------------------| 
G|--------5-555-------3-2----| 
D|--2-222-5-555-2-222-3-2-5--| 
A|--2-222-3-333-2-222-1-0-5--| 
E|--0-000-------0-000-----3--| 

(final) 
E|-----------| 
B|-----------| 
G|--------5--| 
D|--2-222-5--| 
A|--2-222-3--| 
E|--0-000----| 
		  

Full key step upFull key step up
Half key step upHalf key step up
Half key step downHalf key step down
Full key step downFull key step down
hide glossary

See also:

tabs Misc Computer Games - Pokemon - Blue/red - Lavender Town tabs Los Indios Tacunau - Quiero Ser Tu Sombra tabs Misc Television - Thomas The Tank Engine Theme tabs Misc Computer Games - Far Cry 3 - Ukulele Girl tabs La Trampa - Vendas En El Corazon tabs Idir - A Vava Inouva
e-chords

Other versions:

tabs Babes In Toyland - Real Eyes
auto scroll beats size up size down change color hide chords drawings
tab show chords e-chords YouTube Clip e-chords hide all tabs e-chords go to top tab

share