save to print version add songbook text version e-mail correct tuner
chordsukulelecavacokeyboardtabbassdrumsharmonicaflute Guitar Pro
close

there isn't a video lesson for this song

chords

Hello

	  		(intro) 

E|------------------------------------------------| 
B|-6b-6-----------------6b-6----------------------| 
G|------7(harm.)7(harm.)-----7(harm.)7(harm.)ring-| 
D|------------------------------------------------| 
A|------------------------------------------------| 
E|------------------------------------------------| 

(verso) 

E|--0-0-0-1-0-0-----------------------0-0-0-1-0-0-------0--------------0-- 
B|-3-3-3-----3---0-0-0-0-0-0-3-------3-3-3-----3---0-0-0---0-0-3---------- 
G|--------------2-------2-2---2-4b-4--------------2-------2-2---2-4b-4--4- 
D|------------------------------------------------------------------------ 
A|------------------------------------------------------------------------ 
E|------------------------------------------------------------------------ 

--0-0-0-0-0-3/2-3/2-3/2-| 
-3-3-3------------------| 
------------------------| 
------------------------| 
------------------------| 
------------------------| 

(Refrão) 
E|--------------------------| 
B|--------------------------| 
G|-777-14-14-14-444-444-444-| 
D|-777-14-14-14-444-444-444-| 
A|-555-12-12-12-222-222-222-| 
E|--------------------------| 

(ponte) 
E|------------------------------------------------------------------------| 
B|------------------------------------------------------------------------| 
G|-----------555555555577777777777777777777----------555555555522222222-2-| 
D|-55555555555555555555777777777777777777775555555555555555555522222222-2-| 
A|-55555555553333333333555555555555555555555555555555333333333300000000-0-| 
E|-3333333333------------------------------3333333333---------------------| 
		  

See also:

tabs Misc Computer Games - Pokemon - Blue/red - Lavender Town tabs Los Indios Tacunau - Quiero Ser Tu Sombra tabs Misc Television - Thomas The Tank Engine Theme tabs Misc Computer Games - Far Cry 3 - Ukulele Girl tabs La Trampa - Vendas En El Corazon tabs Idir - A Vava Inouva
e-chords

Other versions:

tabs Lionel Richie - Hello tabs Oasis - Hello tabs Courtney Love - Hello tabs Babes In Toyland - Hello tabs Mallory Knox - Hello tabs 4men - Hello
auto scroll beats size up size down change color hide chords drawings
tab show chords e-chords YouTube Clip e-chords hide all tabs e-chords go to top tab

share