Babes In Toyland

Flesh Crawl

Babes In Toyland

tabs

by  FERNSANTANA

save to print version add songbook text version e-mail correct tuner
chordsukulelecavacokeyboardtabbassdrumsharmonicaflute Guitar Pro
close

there isn't a video lesson for this song

chords

Flesh Crawl

	  		  OO:O2 

(riff 1) 
   D|----------------------- 
   A|----------------------- 
   E|--O-6-5-O-3-5-O-2-3-O-- 

  OO:16	 

(riff 2)		          
  B|------------------------------|------------------------------------| 
  G|-7-x-7-x-7-x-7-7-7-7-7-6-6-9--|-7-7-7-7-7-7-7-7-7-7-7/-13/14^------| 
  D|-x-x-x-x-x-x-x-x-x-x-x-x-x-x--|-x-x-x-x-x-x-x----------------------| 
  A|-5-x-5-x-5-x-5-5-5-5-5-8-8-7--|-5-x-5-x-5-x-5-5-5-5-5/-11/12^------| 
  E|------------------------------|------------------------------------| 
  you play it four times, But on the fourth time 
  you slide down to eleven/twelve. 

  OO:29   

(riff 1) 

  OO:43 

(riff 2) 


  O1:1O 

(riff 3) 
  G|-77--1212-77--55---| 
  D|-xx--X-X--xx--xx---| 
  A|-55--1O1O-55--33---| 
  E|-------------------| 

  O1:24 

(riff 4) 
  D|------------------------------ 
  A|------------------------------ 
  E|-O-O-3-5--O-O-3-5--O-O-3-5-6-- 

   O1:36 
			 
(riff 5 - 2x) 
   D|------------------------------- 
   A|-O-O-3-5--O-O-3-5--O-O-3-5-6--- 
   E|------------------------------- 

  O1:49                  

(riff 6 - 2x) 
  G|-4-4-4-4-3-3-3-3--- 
  D|-X-X-X-X-X-X-X-X--- 
  A|-2-2-2-2-1-1-1-1--- 
  E|------------------- 
		  

See also:

tabs Misc Computer Games - Pokemon - Blue/red - Lavender Town tabs Los Indios Tacunau - Quiero Ser Tu Sombra tabs Misc Television - Thomas The Tank Engine Theme tabs Misc Computer Games - Far Cry 3 - Ukulele Girl tabs La Trampa - Vendas En El Corazon tabs Idir - A Vava Inouva
e-chords

Other versions:

tabs Babes In Toyland - Flesh Crawl
auto scroll beats size up size down change color hide chords drawings
tab show chords e-chords YouTube Clip e-chords hide all tabs e-chords go to top tab

share