Babado Novo

Amor Perfeito Tab

Babado Novo

Difficulty: EasyEasy

by murilo26

tuner correct add songbook print version text version save to e-mail
chordsukuleleukulelecavacokeyboardtabbassdrumsharmonicsflute Guitar Pro
close

there isn't a video lesson for this song

chords

Amor Perfeito

Year: 2003 - Album: Uau! Ao Vivo em Salvador

  		e|--------------------------------------------------| 
B|----------7-7h6-7---------------------------------| 
G|------7-9---------9-7-7h9-7-6-------7h9-7---------| 
D|---9-------------------------9-7----------9-7-----| 
A|----------------------------------9---------------| 
E|--------------------------------------------------| 

e|-------------------------------10-----------------| 
B|--8---8-8-8-8--10h11r10-8--------10--10-----------| 
G|-----7-7-7-7---------------7----------------------| 
D|--------------------------------------------------| 
A|--------------------------------------------------| 
E|--------------------------------------------------|
	  

auto scroll beats size up size down change color hide chords drawings
tab show chords e-chords YouTube Clip e-chords hide all tabs e-chords go to top tab

share with facebook

Search Paypal