Avril Lavigne

Nobody's Home

Avril Lavigne

tabs Beginner beginner

save to print version add songbook text version e-mail correct tuner
chordsukulelecavacokeyboardtabbassdrumsharmonicaflute Guitar Pro
close

there isn't a video lesson for this song

chords

Nobody's Home

Year: 2004 - Album: Under My Skin - Import Japan

	  		This is  the first tab I submit, I hope you enjoy it, s
oon I will submit some other changes he make in the bridge 
but here you have the principal chords of the song:


  Intro:


E)-------------------------------------------------------------------------------------------------
A)-----------8-------------------6---------------------------------------------------------------
D)------9--------9-----------8------8-----------6----5--------5----6----5---------------------
G)----9---9----9----------8----8------8-------6-------------6--------------6------------------
B)--8-------------------6-------------------4------4-----4------4-----4------------------------
E)------------------------------------------------------------------------------------------------


  Verse:

E)-----8---------6---------4---------4-----------------------------------------------------------
A)-----8-------- 6---------4---------4-----------------------------------------------------------
D)-----10--------8---------6---------6-----------------------------------------------------------
G)-----10--------8---------6---------6-----------------------------------------------------------
B)-----8---------6---------4---------4-----------------------------------------------------------
E)-----8---------6---------4---------4-----------------------------------------------------------
		  

auto scroll beats size up size down change color hide chords drawings
tab show chords e-chords YouTube Clip e-chords hide all tabs e-chords go to top tab

share