save to print version add songbook text version e-mail correct tuner
chordsukulelecavacokeyboardtabbassdrumsharmonicaflute Guitar Pro
close

there isn't a video lesson for this song

chords

Sasong

Key:  A# More
Sasong Key FF
Sasong Key F#F#
Sasong Key GG
Sasong Key G#G#(one step down)
Sasong Key AA(half step down)
Sasong Key A#A#(original key)
Sasong Key BB(half step up)
Sasong Key CC(one step up)
Sasong Key C#C#
Sasong Key DD
Sasong Key D#D#
Sasong Key EE
	  		


Chord shapes: 
|-9-----7-------2------2-------0-------0-| 
|-10----9-------3------3-------2-------2-| 
|-11----9-------4------4-------2-------2-| 
|-9-----7-------2------0-------0-------0-| 
|-9-----7-------2------x-------0-------0-| 
|-x-----x-------2------x-------0-------x-| 


Intro / Chorus (same part): 
d#|-----9------9-------7---7------2---2-----0------| 
A#|---10-10--10-10----9-9-9-9----3-3-3-3---2-2-2---| 
F#|-11-----11-------9----9------4---4-----2---2-2--| 
C#|----------------------------------------------4-| 
G#|-9---------------7-----------2--024-------------| 
D#|---------------------------------------0--------| 

Verse: 
d#|---2-----0-----0----------| 
A#|--3-3---3-3---2-2-2-------| 
F#|-4-----4-----2---2-2------| 
C#|--------------------4-----| 
G#|-------------0------------| 
D#|--------------------------| 

 
		  

See also:

tabs Deep Purple - Smoke on the water (ver. 3) tabs Albert Hammond Jr - Holiday tabs Deep Purple - When a Blind man cries tabs Deep Purple - The Unwritten Law tabs Deep Purple - Highway Star tabs Ira! - Núcleo Base ( Acústico MTV)
e-chords

Other versions:

tabs Avey Tare And Kria Brekkan - Sasong
auto scroll beats size up size down change color hide chords drawings
tab show chords e-chords YouTube Clip e-chords hide all tabs e-chords go to top tab

share