Avalanch

Las Ruinas Del Edén Iii

Avalanch

tabs

by  MARCNAGEL

save to print version add songbook text version e-mail correct tuner
chordsukulelecavacokeyboardtabbassdrumsharmonicaflute Guitar Pro
close

there isn't a video lesson for this song

chords

Las Ruinas Del Edén Iii

	  		la afinacion es: Eb Ab Db Gb Bb Eb 
                 D# G# C# F# A# D#, o sea, un semitono más abajo 
                                   de la afinación 'éstandar' 

Eb|---------------------------------|---------------------------------| 
Bb|---------------------------------|---------------------------------| 
Gb|---------------------------------|---------------------------------| 
Db|---------------------------------|---------------------------------| 
Ab|-4/5---4/5---4/5-2.--2-2-7-------|-4/5---4/5---4/5-2.--2-2-5-------| 
Eb|-2/3---2/3---2/3-0.--0-0---------|-2/3---2/3---2/3-0.--0-0---------| 

Eb|---------------------------------|---------------------------------| 
Bb|---------------------------------|---------------------------------| 
Gb|---------------------------------|---------------------------------| 
Db|---------------------------------|---------------------------------| 
Ab|-4/5---4/5---4/5-2.--2-2-4-------|-4/5---4/5---4/5-2.--2-2-3-------| 
Eb|-2/3---2/3---2/3-0.--0-0---------|-2/3---2/3---2/3-0.--0-0---------| 

Eb||---------------------------------||     Eb|-----------------------| 
Bb||---------------------------------||     Bb|-----------------------| 
Gb|:---------------------------------:|     Gb|-----------------------| 
Db|:-4/5-5-5---4/5---5-5---4/5-5-5---:| x2  Db|-----------------------| 
Ab||-2/3-3-3---2/3---3-3---2/3-3-3---||     Ab|-2~--------------------| 
Eb||---------------------------------||     Eb|-0~--------------------| 

    Ebm                               Cb 
Eb|---------------------------------|---------------------------------| 
Bb|---------------------------------|---------------------------------| 
Gb|---------------------------------|---------------------------------| 
Db|-9-9-9-9-9-9-9-9-9-9-9-9-9-9-9-9-|-5---5-5-5---5-5-5---5-5-5---5-5-| 
Ab|-7-7-7-7-7-7-7-7-7-7-7-7-7-7-7-7-|-3---3-3-3---3-3-3---3-3-3---3-3-| 
Eb|---------------------------------|---------------------------------| 
    . . . . . . . .   . .   . .   .       . .     . .     . .     . . P.M. 
          Tan ab - sur - da situa - cion 

    Ebm                               Db 
Eb|---------------------------------|---------------------------------| 
Bb|---------------------------------|---------------------------------| 
Gb|---------------------------------|---------------------------------| 
Db|-9-9-9-9-9-9-9-9-9-9-9-9-9-9-9-9-|-7---7-7-7---7-7-7---7-7-7---7-7-| 
Ab|-7-7-7-7-7-7-7-7-7-7-7-7-7-7-7-7-|-5---5-5-5---5-5-5---5-5-5---5-5-| 
Eb|---------------------------------|---------------------------------| 
    . . . . . . . .   . .   . .   .       . .     . .     . .     . . P.M. 
          Sólo tie - ne u - na sa - lida 

    Ebm                               Cb                          Bbm 
Eb|---------------------------------|---------------------------------| 
Bb|---------------------------------|---------------------------------| 
Gb|---------------------------------|---------------------------------| 
Db|-9-9-9-9-9-9-9-9-9-9-9-9-9-9-9-9-|-5---5-5-5---5-5-5---5-5-5---4---| 
Ab|-7-7-7-7-7-7-7-7-7-7-7-7-7-7-7-7-|-3---3-3-3---3-3-3---3-3-3---2---| 
Eb|---------------------------------|---------------------------------| 
    . . . . . . . .   . .   . .   .       . .     . .     . .         P.M. 
          No me tra - tas co - mo a un dios 

    Abm                               Fb 
Eb|---------------------------------|---------------------------------| 
Bb|---------------------------------|---------------------------------| 
Gb|---------------------------------|---------------------------------| 
Db|---------------------------------|---------------------------------| 
Ab|-7---7-7-7---7-7-7---7-7-7---7-7-|-3---3-3-3---3-3-3---3-3-3---3-3-| 
Eb|-5---5-5-5---5-5-5---5-5-5---5-5-|-1---1-1-1---1-1-1---1-1-1---1-1-| 
        . .     . .     . .     . .       . .     . .     . .     . . P.M. 
          Y ja - mas com - pren - deras     Todo el da - ńo y todo el 

    Cb                                Gb 
Eb|---------------------------------|---------------------------------| 
Bb|---------------------------------|---------------------------------| 
Gb|---------------------------------|---------------------------------| 
Db|-5---5-5-5---5-5-5---5-5-5---5-5-|---------------------------------| 
Ab|-3---3-3-3---3-3-3---3-3-3---3-3-|-5---5-5-5---5-5-5---5-5-5-5-5---| 
Eb|---------------------------------|-3---3-3-3---3-3-3---3-3-3-3-3---| 
        . .     . .     . .     . .       . .     . .     . .         P.M. 
    mal         por el que hoy haz de pagar 

    Gb                      Db                        Ebm 
Eb|-------------------------------------------------|---------------------------------| 
Bb|-------------------------------------------------|---------------------------------| 
Gb|-------------------------------------------------|---------------------------------| 
Db|-------------------------------------------------|---------------------------------| 
Ab|-5-5-5-5-5-5-5-----------5-5-5-5-5-5-5-----------|-7h8-8-7h8-8-7h8-8-7h8-8-7h8-7h8-| 
Eb|-3-3-3-3-3-3-3-----------5-5-5-5-5-5-5-----------|---------------------------------| 
    . . . . . .             . . . . . .             P.M. 
    Llo    -    ra el       cie  -  lo  y la          mar 

    Gb                      Db                        Bbm 
Eb|-------------------------------------------------|---------------------------------| 
Bb|-------------------------------------------------|---------------------------------| 
Gb|-------------------------------------------------|---------------------------------| 
Db|-------------------------------------------------|---------------------------------| 
Ab|-5-5-5-5-5-5-5-----------5-5-5-5-5-5-5-----------|-9---------------5-------5-------| 
Eb|-3-3-3-3-3-3-3-----------5-5-5-5-5-5-5-----------|-7-7-7-7-7-7-7-7---7-7-7---7-7-7-| 
    . . . . . .             . . . . . .                 . . . . . .       .       . . P.M. 
    Sa    -    be que       ya  -  no es a          - zul                          El 

    Gb                      Db                        Ebm 
Eb|-------------------------------------------------|---------------------------------| 
Bb|-------------------------------------------------|---------------------------------| 
Gb|-------------------------------------------------|---------------------------------| 
Db|-------------------------------------------------|---------------------------------| 
Ab|-5-5-5-5-5-5-5-----------5-5-5-5-5-5-5-----------|-7h8-8-7h8-8-7h8-8-7h8-8-7h8-7h8-| 
Eb|-3-3-3-3-3-3-3-----------5-5-5-5-5-5-5-----------|---------------------------------| 
    . . . . . .             . . . . . .             P.M. 
    vien   -   to ha        de - ja  - do de ha     - blar                       Y el 

    Gb                      Db                        Bbm 
Eb|-------------------------------------------------||---------------------------------|| 
Bb|-------------------------------------------------||---------------------------------|| 
Gb|-------------------------------------------------|:---------------------------------:| 
Db|-------------------------------------------------|:---------------------------------:| x2 
Ab|-5-5-5-5-5-5-5-----------5-5-5-5-5-5-5-----------||-9-------------------------------|| 
Eb|-3-3-3-3-3-3-3-----------5-5-5-5-5-5-5-----------||-7-7-7-7-7-7-7-7-7-7-7-7-7-7-7-7-|| 
    . . . . . .             . . . . . .                  . . . . . .       .       . . P.M. 
    so  -  lo   es        - con  -  de su           - luz 

= Solo = 
    Bbm 
Eb|--------------------------------------------------| 
Bb|-12-10-------------10--------------{de ahi no se}-| 
Gb|-------12-11----------12-11-9h11-9-{como sigue, }-| 
Db|-------------14-12-----------------{improvisale }-| 
Ab|-----------------------------------{tu algo     }-| 
Eb|--------------------------------------------------| 

    Bbm 
Eb|---------------------------------| 
Bb|---------------------------------| 
Gb|---------------------------------| 
Db|---------------------------------| 
Ab|-9-------------------------------| 
Eb|-7-7-7-7-7-7-7-7-7-7-7-7-7-7-7-7-| 
      . . . . . . . . . . . . . . . P.M. 
    No en - tien - do           Si 

    Cb              Db                Ebm 
Eb|---------------------------------|---------------------------------| 
Bb|---------------------------------|---------------------------------| 
Gb|---------------------------------|---------------------------------| 
Db|-5-5-5-5-5-5-5-5-7-7-7-7-7-7-7-7-|-9-9-9-9-9-9-9-9-9-9-9-9-9-9-9-9-| 
Ab|-3-3-3-3-3-3-3-3-5-5-5-5-5-5-5-5-|-7-7-7-7-7-7-7-7-7-7-7-7-7-7-7-7-| 
Eb|---------------------------------|---------------------------------| 
      . . . . . . .   . . . . . . .     . . . . . . . . . . . . . . . P.M. 
    ya         lo   has des - tro   - za  -  do                   Que 

    Abm             Gb                Db 
Eb|---------------------------------|---------------------------------| 
Bb|---------------------------------|---------------------------------| 
Gb|---------------------------------|---------------------------------| 
Db|---------------------------------|-7-7-7-7-7-7---------------------| 
Ab|-7-7-7-7-7-7-7-7-5-5-5-5-5-5-5-5-|-5-5-5-5-5-5---------------------| 
Eb|-5-5-5-5-5-5-5-5-3-3-3-3-3-3-3-3-|-------------2---3---0---2-------| 
      . . . . . . .   . . . . . . .     . . . . .                     P.M. 
    más             quie  -  res de   mi                           Un 


    Cb              Db                Ebm 
Eb|---------------------------------|---------------------------------| 
Bb|---------------------------------|---------------------------------| 
Gb|---------------------------------|---------------------------------| 
Db|-5-5-5-5-5-5-5-5-7-7-7-7-7-7-7-7-|-9-9-9-9-9-9-9-9-9-9-9-9-9-9-9-9-| 
Ab|-3-3-3-3-3-3-3-3-5-5-5-5-5-5-5-5-|-7-7-7-7-7-7-7-7-7-7-7-7-7-7-7-7-| 
Eb|---------------------------------|---------------------------------| 
      . . . . . . .   . . . . . . .     . . . . . . . . . . . . . . . P.M. 
    di  -  a  tal - vez  sea  sen   - sa - to                  Pe - ro 

    Abm             Gb                Db 
Eb|---------------------------------|---------------------------------| 
Bb|---------------------------------|---------------------------------| 
Gb|---------------------------------|---------------------------------| 
Db|---------------------------------|-7---7-7-7-7-7-7-7-7-7-7-7-7-7-7-| 
Ab|-7-7-7-7-7-7-7-7-5-5-5-5-5-5-5-5-|-5---5-5-5-5-5-5-5-5-5-5-5-5-5-5-| 
Eb|-5-5-5-5-5-5-5-5-3-3-3-3-3-3-3-3-|---------------------------------| 
      . . . . . . .   . . . . . . .     . . . . .                     P.M. 
    hoy       ten - drás  que  su   - frir 

    Bbm Abm Bbm 
Eb|---------------------------------| 
Bb|---------------------------------| 
Gb|---------------------------------| 
Db|---------------------------------| 
Ab|-9---7---9---.-------------------| 
Eb|-7---5---7---.-------------------| 
                Las rui - nas del E - dén 

Eb|---------------------------------|---------------------------------|---------| 
Bb|---------------------------------|---------------------------------|---------| 
Gb|---------------------------------|---------------------------------|---------| 
Db|-----9-7-7h9-----9-7-7h9-----9-7-|/10--9-------9-7-7h9-----9-7-7h9-|---7-5-4-| 
Ab|-7-7---------7-7---------7-7-----|---------7-7---------7-7---------|-5-------| 
Eb|---------------------------------|---------------------------------|---------| 
    . .         . .         . .               . .         . .         P.M. 

Eb|---------------------------------|-----------------------------|---------| 
Bb|---------------------------------|-----------------------------|---------| 
Gb|---------------------------------|-----------------------------|---------| 
Db|-----9-7-7h9-----9-7-7h9-----9-7-|/10--9-------9-7-7h9-----9-7-|---------| 
Ab|-7-7---------7-7---------7-7-----|---------7-7---------7-7-----|-8~------| 
Eb|---------------------------------|-----------------------------|---------| 
    . .         . .         . .               . .         . .     P.M. 

Eb|---------------------------------|---------------------------------|---------| 
Bb|---------------------------------|---------------------------------|---------| 
Gb|---------------------------------|---------------------------------|---------| 
Db|-----9-7-7h9-----9-7-7h9-----9-7-|/10--9-------9-7-7h9-----9-7-7h9-|---7-5-4-| 
Ab|-7-7---------7-7---------7-7-----|---------7-7---------7-7---------|-5-------| 
Eb|---------------------------------|---------------------------------|---------| 
    . .         . .         . .               . .         . .         P.M. 

Eb|---------------------------------|-----------------------------|---------| 
Bb|---------------------------------|-----------------------------|---------| 
Gb|---------------------------------|-----------------------------|---------| 
Db|-----9-7-7h9-----9-7-7h9-----9-7-|/10--9-------9-7-7h9---------|---------| 
Ab|-7-7---------7-7---------7-7-----|---------7-7---------7-7-7-7-|-7-------| 
Eb|---------------------------------|-----------------------------|---------| 
    . .         . .         . .               . .                           P.M. 

Eb|---------------------------------| 
Bb|---------------------------------| 
Gb|---------------------------------| 
Db|---------------------------------| 
Ab|-7-7-7-7-7.----------------------| 
Eb|---------------------------------|
		  

See also:

tabs Mago De Oz - Ancha es castilla tabs La Oreja de Van Gogh - V.s.o. tabs Ana Gabriel - Fgbh Gj tabs Avalanch - Torquemada tabs Avalanch - La Llama Eterna tabs Mago De Oz - Pensando En Ti
e-chords

Other versions:

tabs Avalanch - Las Ruinas Del Edén Iii
auto scroll beats size up size down change color hide chords drawings
tab show chords e-chords YouTube Clip e-chords hide all tabs e-chords go to top tab

share