August Burns Red

Broken Promises

August Burns Red

tabs nolevel nolevel

by  ANG-LETRA

save to print version add songbook text version e-mail correct tuner
chordsukulelecavacokeyboardtabbassdrumsharmonicaflute Guitar Pro
close

there isn't a video lesson for this song

chords

Broken Promises

	  		Riff 1a - 00:00 - 00:28 
- ------------------------------------------------------------------| 
- ------------------------------------------------------------------| 
- ------------------------------------------------------------------| 
- -0~------------------------------7~--------------3~------7--------| 
- -0~----------------------------0-5~--------------1~------7---0-0--| 
- -0~----------------------------0-----------------3~------7---2-2--| 
PM                               .                             ... 

- -----------------6~-----------------------------------------------| 
- -----------------6~-----------------------------------------------| 
- -----------------7~-----------------------------------------------| 
- -0~--------------0~--------------0--------------------------------| 
- -0~--------------0~--------------0-0000--00000-001-1---117---7777-| 
- -0~--------------0~--------------0-0000--00000-003-3---337---7777-| 
PM                                   .............................. 

- ------------------------------------------------------------------| 
- ------------------------------------------------------------------| 
- ------------------------------------------------------------------| 
- ------------------------------------------------------------------| 
- ---0-0---00000-000-----0000000-0---0-0---00000-001-1---117---7777-| 
- ---0-0---00000-000-----0000000-0---0-0---00000-003-3---337---7777-| 
PM   .............................................................. 

- ------------------------------------------------------------------| 
- ------------------------------------------------------------------| 
- ------------------------------------------------------------------| 
- ------------------------------------------------------------------| 
- ---0-0---00000-000-----0000000-0---0-0---00000-001-1---117---7777-| 
- ---0-0---00000-000-----0000000-0---0-0---00000-003-3---337---7777-| 
PM   .............................................................. 

Riff 1b - 00:00 - 00:28-------------------------| - x2 
- ---------------------------------------------------| 
- ---------------------------------------------------| 
- ---------------------------------------------------| 
- -12-000000-12-00-11-00-12-0-8-000000-7-00-8-00-5/--| 
- ---------------------------------------------------| 
- ---------------------------------------------------| 
PM    ......    ..    ..    .   ......   ..   .. 

- -----------------------------------------------------------| 
- -----------------------------------------------------------| 
- -----------------------------------------------------------| 
- -/12-000000-12-00-11-00-12-0-11h12p11p0-7h8p7p0------15-11-| 
- ------------------------------------------------8/12-------| 
- -----------------------------------------------------------| 
PM     ......    ..    ..    . 

- ---------------------------------------------------------| 
- ---------------------------------------------------------| 
- -------------------------------------9h10p9--------------| 
- -12-000000-12-00-11-00-12-0-8-000000--------12p11-0h8h11-| 
- ---------------------------------------------------------| 
- ---------------------------------------------------------| 
PM    ......    ..    ..    .   ...... 

- ----------------------------------------------------------| 
- ----------------------------------------------------------| 
- ----------------------------------------------------------| 
- -12-000000-12-00-11-00-12-0-11h12p11p0-7h8p7p0------15-11-| 
- -----------------------------------------------8/12-------| 
- ----------------------------------------------------------| 
PM    ......    ..    ..    . 

Riff 2, Guitar 1 & 2 - 00:28 - 01:03 
- -------------------------------------------------| 
- -------------------------------------------------| 
- -------------------------------------------------| 
- -------------------------------------0-----------| 
- -------00-------0000000------------0-0-00-10-9br-| 
- -12-12-00-12-12-0000000-10h12p10p0-0-0-00--------| 
PM       ..       .......            .   .. 
- -------------------------------------------------| 
- -------------------------------------------------| 
- -------------------------------------------------| 
- -0~----------------------------------------------| 
- -0~----------------------------------------------| 
- -0~----------------------------------------------| 


- ----------------------------------------------------------| 
- ----------------------------------------------------------| 
- ------------------------------------------------9h10p9----| 
- ------------------------------------------10h12--------9--| 
- -00-------00-------00000-9h10p9p0-0-10h12-----------------| 
- -00-12-12-00-12-12-00000----------0-----------------------| 
PM ..       ..       .....          . 
- ----------------------------------------------------------| 
- ----------------------------------------------------------| 
- ------------------------------------------------9h10p9----| 
- ------------------------------------------10h12--------9--| 
- -00-------00-------00000------------10h12-----------------| 
- -00-------00-------00000----------------------------------| 
PM .. 


- -------------------------------------------------| 
- -------------------------------------------------| 
- -------------------------------------------------| 
- -------------------------------------0-----------| 
- -------00-------0000000------------0-0-00-10-9br-| 
- -12-12-00-12-12-0000000-10h12p10p0-0-0-00--------| 
PM       ..       .......            .   .. 
- -------------------------------------------------| 
- -------------------------------------------------| 
- -------------------------------------------------| 
- -------------------------------------0-----------| 
- -------00-------0000000------------0-0-00-10-9br-| 
- -12-12-00-12-12-0000000-10h12p10p0-0-0-00--------| 
PM       ..       .......            .   .. 


- ------------------------------------------------------------| 
- ------------------------------------------------------------| 
- ------------------------------------------------------------| 
- ---------------------------------------12-------------------| 
- -00-------00-------00000-9h10p9p0-0-13----13-12-13-12-10h13-| 
- -00-12-12-00-12-12-00000----------0-------------------------| 
PM ..       ..       .....          ................... 
- ------------------------------------------------------------| 
- ------------------------------------------------------------| 
- ------------------------------------------------------------| 
- ---------------------------------------12-------------------| 
- -00-------00-------00000-9h10p9p0-0-13----13-12-13-12-10h13-| 
- -00-12-12-00-12-12-00000----------0-------------------------| 
PM ..       ..       .....          ................... 


- -------------------------------------------------| 
- -------------------------------------------------| 
- -------------------------------------------------| 
- -------------------------------------0-----------| 
- -------00-------0000000------------0-0-00-10-9br-| 
- -12-12-00-12-12-0000000-10h12p10p0-0-0-00--------| 
PM       ..       .......            .   .. 
- -------------------------------------------------| 
- -------------------------------------------------| 
- -------------------------------------------------| 
- -------------------------------------0-----------| 
- -------00-------0000000------------0-0-00-10-9br-| 
- -12-12-00-12-12-0000000-10h12p10p0-0-0-00--------| 
PM       ..       ....... 


- ------------------------------------------------------------| 
- ------------------------------------15-13----13-------------| 
- ------------------------------------------14----14-12-14-11-| 
- ------------------------------------------------------------| 
- -00-------00-------00000-9h10p9p0-0-------------------------| 
- -00-12-12-00-12-12-00000----------0-------------------------| 
PM ..       ..       .....          . 
- ------------------------------------------------------------| 
- ------------------------------------------------------------| 
- ------------------------------------------------------------| 
- ------------------------------------12-10----10-------------| 
- -00-------00-------00000-9h10p9p0-0-------12----12-10-12-9--| 
- -00-12-12-00-12-12-00000----------0-------------------------| 
PM ..       ..       .....          . 


- -------------------------------------------------| 
- -------------------------------------------------| 
- -------------------------------------------------| 
- -------------------------------------0-----------| 
- -------00-------0000000------------0-0-00-10-9br-| 
- -12-12-00-12-12-0000000-10h12p10p0-0-0-00--------| 
PM       ..       .......            .   .. 
- -------------------------------------------------| 
- -------------------------------------------------| 
- -------------------------------------------------| 
- -------------------------------------0-----------| 
- -------00-------0000000------------0-0-----------| 
- -12-12-00-12-12-0000000------------0-0-----------| 
PM       ..       .......            . 


- ----------------------------------------------------------| 
- ----------------------------------------------------------| 
- ------------------------------------------------9h10p9----| 
- ------------------------------------------10h12--------9--| 
- -00-------00-------00000-9h10p9p0-0-10h12-----------------| 
- -00-12-12-00-12-12-00000----------0-----------------------| 
PM ..       ..       .....          . 
- ----------------------------------------------------------| 
- ----------------------------------------------------------| 
- ------------------------------------------------9h10p9----| 
- ------------------------------------------10h12--------9--| 
- -00-------00-------00000-9h10p9p0-0-10h12-----------------| 
- -00-12-12-00-12-12-00000----------0-----------------------| 
PM ..       ..       .....          . 


- -------------------------------------------------| 
- -------------------------------------------------| 
- -------------------------------------------------| 
- -------------------------------------0-----------| 
- -------00-------0000000------------0-0-00-10-9br-| 
- -12-12-00-12-12-0000000-10h12p10p0-0-0-00--------| 
PM       ..       .......            .   .. 
- -------------------------------------------------| 
- -------------------------------------------------| 
- -------------------------------------------------| 
- -------------------------------------0-----------| 
- -------00-------0000000------------0-0-----------| 
- -12-12-00-12-12-0000000------------0-0-----------| 
PM       ..       .......            . 


- ------------------------------------------------------------| 
- ------------------------------------------------------------| 
- ------------------------------------------------------------| 
- ---------------------------------------12-------------------| 
- -00-------00-------00000-9h10p9p0-0-13----13-12-13-12-10h13-| 
- -00-12-12-00-12-12-00000----------0-------------------------| 
PM ..       ..       .....          ................... 
- ------------------------------------------------------------| 
- ------------------------------------------------------------| 
- ------------------------------------------------------------| 
- ---------------------------------------12-------------------| 
- -00-------00-------00000-9h10p9p0-0-13----13-12-13-12-10h13-| 
- -00-12-12-00-12-12-00000----------0-------------------------| 
PM ..       ..       .....          ................... 

clean 

Riff 3a - 01:03 - 01:16 
- -10~-------------------------------------------------------------| 
- -10~-----------------------------------------11~-----------------| 
- -11~-------------------------------------------------------------| 
- -12~-----------------------------------12~-----------------------| 
- -----------------------------12--13~-----------------------------| 
- -----------------------------------------------------------------| 

- -10~-------------------------------------------------------------| 
- -10~-----------------------------------------11~-----------------| 
- -11~-----------------------------------------------------12~-----| 
- -12~-----------------------------------12~-----------------------| 
- -----------------------------12--13~-----------------------------| 
- -----------------------------------------------------------------| 

Riff 4b - 01:06 - 01:16 
- -------12---------12---------12---------12---| 
- ----15---------15---------15---------15------| 
- -14---------14---------14---------14---------| delay? probs 
- ---------------------------------------------| 
- ---------------------------------------------| 
- ---------------------------------------------| 

Riff 5, Guitar 1 & 2 - 01:16 - 01:30 
- --------------------------------------------------------| 
- --------------------------------------------------------| 
- --------------------------------------------------------| 
- --------------------------------------------------------| 
- --------------------------------------------------------| 
- -12-000000-12-12-0-11-11-0-12-12-8-000000-7-00-8-00-5-0-| 
PM    ............................   .................... 

- -------------------------------------------------------------| 
- -------------------------------------------------------------| 
- -------------------------------------------------------------| 
- -------------------------------------------------------------| 
- --------------------------------------------------------8----| 
- -12-000000-12-12-0-11-11-0-12-12-11h12p11p0-7h8p7p0-3/7---11-| 
PM    ............................ 

- ----------------------------------------------------------| 
- ----------------------------------------------------------| 
- ----------------------------------------------------------| 
- ------------------------------------------2h3p2-----------| 
- ------------------------------------------------5p4-0h1/4-| 
- -12-000000-12-12-0-11-11-0-12-12-8-000000-----------------| 
PM    ............................   ...... 

- ---------------------------------------------------------------| 
- ---------------------------------------------------------------| 
- ---------------------------------------------------------------| 
- ---------------------------------11h12p11p0-7h8p7p0------15-11-| 
- -5--------------------------------------------------8/12-------| 
- ----000000-12-12-0-11-11-0-12-12-------------------------------| 
PM    ............................ 
- ---------------------------------------------------------------| 
- ---------------------------------------------------------------| 
- ---------------------------------------------------------------| 
- ---------------------------------7h8p7p0----4h5p4p0------11-7--| 
- -5--------------------------------------------------4/8--------| 
- ----000000-12-12-0-11-11-0-12-12-------------------------------| 
PM    ............................ 


Riff 5, Guitar 1 & 2 - 01:30 - 01:45 
- -----------------------------------------------------------------| 
- -----------------------------------------------------------------| 
- -----------------------------------------------------------------| 
- -7\------7--6--7-8-------7--8--5-7-------7--6--7-3--3--3/7---2---| 
- -5\--0-0-5--4--5-8---0-007--8--5-5--0--0-5--4--5-3--3--3/7---0---| 
- -7\--0-0-7--6--7-8---0-007--8--5-7--0--0-7--6--7-3--3--3/7---2---| 
PM     ...             ....           .... 
- -------------------------------------------------17--------------| 
- /15------------------------------18----------------------14------| 
- -----------------------------------------------------------------| 
- -----------------------------------------------------------------| 
- -----------------------------------------------------------------| 
- -----------------------------------------------------------------| 
AP ............................................................... 


- -----------------------------------------------------------------| 
- -----------------------------------------------------------------| 
- -----------------------------------------------------------------| 
- -7\------7--6--7-8-------7--8--5-7-------7--6--7-3--3--3/7~------| 
- -5\--0-0-5--4--5-8---0-007--8--5-5--0--0-5--4--5-3--3--3/7~------| 
- -7\--0-0-7--6--7-8---0-007--8--5-7--0--0-7--6--7-3--3--3/7~------| 
PM     ...             ....           .... 
- ---------------------------------17--------------20b-------------22\-----| 
- /15----------------------------------------------------------------------| 
- -------------------------------------------------------------------------| 
- -------------------------------------------------------------------------| 
- -------------------------------------------------------------------------| 
- -------------------------------------------------------------------------| 
AP ............................................................... 


Riff 6a - 01:45 - 02:40----------------------------------------| - x8 
- -----0~------------------------------0~---------------------------| 
- ---3~------------------------------6~-----------------------------| 
- -2~------------------------------5~-------------------------------| 
- ------------------------------------------------------------------| 
- ------------------------------------------------------------------| 
- ------------------------------------------------------------------| 

Riff 6b - 01:58 - 03:07 
- -----------------------------------------------------------------| 
- -------15~-----------------------------15~-----------------------| 
- -11~-------------------------11--12~-----------------------------| 
- -----------------------------------------------------------------| 
- -----------------------------------------------------------------| 
- -----------------------------------------------------------------| 

- -----------------------------------------------------------------| 
- -------15~-----------------------------------13~-----------------| 
- -11~-------------------------11--12~-----------------------------| 
- ---------------------------------------12br----------------------| 
- -----------------------------------------------------------------| 
- -----------------------------------------------------------------| 

- -----------------------------------------------------------------| 
- -------15~-----------------------------15~-----------------------| 
- -11~-------------------------11--12~-----------------------------| 
- -----------------------------------------------------------------| 
- -----------------------------------------------------------------| 
- -----------------------------------------------------------------| 

- -----------------------------------------------------------------| 
- -------15~-----------------------------------13~-----------------| 
- -11~-------------------------11--12~---------------------15~-----| 
- ---------------------------------------12br----------------------| 
- -----------------------------------------------------------------| 
- -----------------------------------------------------------------| 

- -12~---------14~-----------------15~-----------------------------| 
- ---15~---------15~-----------------15~---------------------------| 
- -------14~---------14~-----------------14----12h14~--------------| 
- -----------------------------------------------------------------| 
- -----------------------------------------------------------------| 
- -----------------------------------------------------------------| 

- -12~---------14~-----------------14~---14--15-17~-------/20b-----| 
- ---15~---------15~-----------------15----------------------------| 
- -------14~---------14~-12h14----------------------~--------------| 
- -----------------------------------------------------------------| 
- -----------------------------------------------------------------| 
- -----------------------------------------------------------------| 

- -------------------------20r-----20~-------------17--20-17-------| 
- -----------------------------------------------------------20----| 
- -----------------------------------------------------------------| 
- -----------------------------------------------------------------| 
- -----------------------------------------------------------------| 
- -----------------------------------------------------------------| 

- -----------------------------------------------------------------| 
- -----------------19v---------------------------------------------| 
- -19v-------------------19----17--20~---------/---24----20----22\-| 
- -----------------------------------------------------------------| 
- -----------------------------------------------------------------| 
- -----------------------------------------------------------------| 

- -----------------------------------------------------------------| 
- -------15~-----------------------------------13b-----------------| 
- -11~-------------------------11--12~-----------------------------| 
- ---------------------------------------12br----------------------| 
- -----------------------------------------------------------------| 
- -----------------------------------------------------------------| 

- -----------------------------------------------------------------| 
- -------15~-----------------------------------13~--------/20----\-| 
- -11~-------------------------11--12~-----------------------------| 
- ---------------------------------------12br----------------------| 
- -----------------------------------------------------------------| 
- -----------------------------------------------------------------| 


Riff 7, Guitar 1 & 2 - 02:40 - 03:07 
- -------------------------------------------------| 
- -------------------------------------------------| 
- -------------------------------------------------| 
- -------------------------------------0-----------| 
- -------00-------0000000------------0-0-00-10-9br-| 
- -12-12-00-12-12-0000000-10h12p10p0-0-0-00--------| 
PM       ..       .......            .   .. 
- -------------------------------------------------| 
- -------------------------------------------------| 
- -------------------------------------------------| 
- -------------------------------------0-----------| 
- -------00-------0000000------------0-0-00-10-9br-| 
- -12-12-00-12-12-0000000-10h12p10p0-0-0-00--------| 
PM       ..       .......            .   .. 


- ----------------------------------------------------------| 
- ----------------------------------------------------------| 
- ------------------------------------------------9h10p9----| 
- ------------------------------------------10h12--------9--| 
- -00-------00-------00000-9h10p9p0-0-10h12-----------------| 
- -00-12-12-00-12-12-00000----------0-----------------------| 
PM ..       ..       .....          . 
- ----------------------------------------------------------| 
- ----------------------------------------------------------| 
- ------------------------------------------------9h10p9----| 
- ------------------------------------------10h12--------9--| 
- -00-------00-------00000-9h10p9p0-0-10h12-----------------| 
- -00-12-12-00-12-12-00000----------0-----------------------| 
PM ..       ..       .....          . 


- -------------------------------------------------| 
- -------------------------------------------------| 
- -------------------------------------------------| 
- -------------------------------------0-----------| 
- -------00-------0000000------------0-0-00-10-9br-| 
- -12-12-00-12-12-0000000-10h12p10p0-0-0-00--------| 
PM       ..       .......            .   .. 
- -------------------------------------------------| 
- -------------------------------------------------| 
- -------------------------------------------------| 
- -------------------------------------0-----------| 
- -------00-------0000000------------0-0-00-10-9br-| 
- -12-12-00-12-12-0000000-10h12p10p0-0-0-00--------| 
PM       ..       ....... 


- ------------------------------------------------------------| 
- ------------------------------------15-13----13-------------| 
- ------------------------------------------14----14-12-14-11-| 
- ------------------------------------------------------------| 
- -00-------00-------00000-9h10p9p0-0-------------------------| 
- -00-12-12-00-12-12-00000----------0-------------------------| 
PM ..       ..       .....          . 
- ------------------------------------------------------------| 
- ------------------------------------------------------------| 
- ------------------------------------------------------------| 
- ------------------------------------12-10----10-------------| 
- -00-------00-------00000-9h10p9p0-0-------12----12-10-12-9--| 
- -00-12-12-00-12-12-00000----------0-------------------------| 
PM ..       ..       .....          . 


- -------------------------------------------------| 
- -------------------------------------------------| 
- -------------------------------------------------| 
- -------------------------------------0-----------| 
- -------00-------0000000------------0-0-00-10-9br-| 
- -12-12-00-12-12-0000000-10h12p10p0-0-0-00--------| 
PM       ..       .......            .   .. 
- -------------------------------------------------| 
- -------------------------------------------------| 
- -------------------------------------------------| 
- -------------------------------------0-----------| 
- -------00-------0000000------------0-0-00-10-9br-| 
- -12-12-00-12-12-0000000-10h12p10p0-0-0-00--------| 
PM       ..       .......            .   .. 


- ----------------------------------------------------------| 
- ----------------------------------------------------------| 
- ------------------------------------------------9h10p9----| 
- ------------------------------------------10h12--------9--| 
- -00-------00-------00000-9h10p9p0-0-10h12-----------------| 
- -00-12-12-00-12-12-00000----------0-----------------------| 
PM ..       ..       .....          . 
- ----------------------------------------------------------| 
- ----------------------------------------------------------| 
- ------------------------------------------------9h10p9----| 
- ------------------------------------------10h12--------9--| 
- -00-------00-------00000-9h10p9p0-0-10h12-----------------| 
- -00-12-12-00-12-12-00000----------0-----------------------| 
PM ..       ..       .....          . 


- -------------------------------------------------| 
- -------------------------------------------------| 
- -------------------------------------------------| 
- -------------------------------------0-----------| 
- -------00-------0000000------------0-0-00-10-9br-| 
- -12-12-00-12-12-0000000-10h12p10p0-0-0-00--------| 
PM       ..       .......            .   .. 
- -------------------------------------------------| 
- -------------------------------------------------| 
- -------------------------------------------------| 
- -------------------------------------0-----------| 
- -------00-------0000000------------0-0-00-10-9br-| 
- -12-12-00-12-12-0000000-10h12p10p0-0-0-00--------| 
PM       ..       ....... 


- ------------------------------------------------------------| 
- ------------------------------------------------------------| 
- ------------------------------------------------------------| 
- ------------------------------------12-10----10-------------| 
- -00-------00-------00000-9h10p9p0-0-------12----12-10-12-9--| 
- -00-12-12-00-12-12-00000----------0-------------------------| 
PM ..       ..       .....          . 
- ------------------------------------------------------------| 
- ------------------------------------15-13----13-------------| 
- ------------------------------------------14----14-12-14-11-| 
- ------------------------------------------------------------| 
- -00-------00-------00000-9h10p9p0-0-------------------------| 
- -00-12-12-00-12-12-00000----------0-------------------------| 
PM ..       ..       .....          . 


Riff 8 - 03:07 - 03:20 
- -------------------------------------------------------------------------------| 
- -------------------------------------------------------15-13----13-------------| 
- -------------------------------------------------------------14----14-12-14-11-| 
- -------------------------------------------------------------------------------| 
- -00--00--0000000---0-00-----0000--00--0000000---0-00---------------------------| 
- -00--00--0000000---0-00-----0000--00--0000000---0-00---------------------------| 
PM ................................................... 
- -------------------------------------------------------------------------------| 
- -------------------------------------------------------------------------------| 
- -------------------------------------------------------------------------------| 
- -------------------------------------------------------12-10----10-------------| 
- -00--00--0000000---0-00-----0000--00--0000000---0-00---------12----12-10-12-9--| 
- -00--00--0000000---0-00-----0000--00--0000000---0-00---------------------------| 
PM ................................................... 


- -----------------------------------------------------------------| 
- -----------------------------------------------------------------| 
- -------------------------------------------------------------9\6-| 
- -----------------------------------------------------------7-----| 
- -00--00--0000000---0-00-----0011--11--11111111--7-77-0h7h8-------| 
- -00--00--0000000---0-00-----0033--33--33333333--7-77-------------| 
PM ................................................... 
- -----------------------------------------------------------------| 
- -----------------------------------------------------------------| 
- -------------------------------------------------------------9\6-| 
- -----------------------------------------------------------7-----| 
- -00--00--0000000---0-00-----0011--11--11111111--7-77-0h7h8-------| 
- -00--00--0000000---0-00-----0033--33--33333333--7-77-------------| 
PM ................................................... 


Riff 9 - 03:20 - 03:47 
- ------------------------------------------------------------------| 
- ------------------------------------------------------------------| 
- ------------------------------------------------------------------| 
- -0~------------------------------7~--------------3~------7--------| 
- -0~----------------------------0-5~--------------1~------7---0-0--| 
- -0~----------------------------0-----------------3~------7---2-2--| 
PM                               .                             ... 

- ------------------------------------------------------------------| 
- ------------------------------------------------------------------| 
- ------------------------------------------------------------------| 
- -0~------------------------------0--------------------------------| 
- -0~------------------------------0-0000--00000-001-1---117---7777-| 
- -0~------------------------------0-0000--00000-003-3---337---7777-| 
PM                                   .............................. 

- ------------------------------------------------------------------| 
- ------------------------------------------------------------------| 
- ------------------------------------------------------------------| 
- ------------------------------------------------------------------| 
- ---0-0---00000-000-----0000000-0---0-0---00000-001-1---117---7777-| 
- ---0-0---00000-000-----0000000-0---0-0---00000-003-3---337---7777-| 
PM   .............................................................. 

- ------------------------------------------------------------------| 
- ------------------------------------------------------------------| 
- ------------------------------------------------------------------| 
- ------------------------------------------------------------------| 
- ---0-0---00000-000-----0000000-0---0-0---00000-001-1---117---7777-| 
- ---0-0---00000-000-----0000000-0---0-0---00000-003-3---337---7777-| 
PM   .............................................................. 

Riff 1b - 03:20 - 03:47 

Riff 10, Guitar 1 & 2 - 03:47 - 03:54 
- -----------------------------------------------------------------| 
- -----------------------------------------------------------------| 
- -----------------------------------------------------------------| 
- -0~--------------------------------------------------------------| 
- -0~--------------------------------------------------------------| 
- -0~--------------------------------------------------------------| 
- 
- -----------------------------------------------------------------| 
- -3-3-3-3-3-3-3-3-3-3-3-3-3-3-3-3-3-3-3-3-3-3-3-3-3-3-3-3-3-3-3-3-| 
- -2-2-2-2-2-2-2-2-2-2-2-2-2-2-2-2-2-2-2-2-2-2-2-2-2-2-2-2-2-2-2-2-| 
- -----------------------------------------------------------------| 
- -----------------------------------------------------------------| 
- -----------------------------------------------------------------| 

Riff 11a - 03:54 - 04:37---------------------------------------| - x6 
- ------------------------------------------------------------------| 
- -3-3-3-3-3-3-3-3-3-3-3-3-3-3-3-3-6-6-6-6-6-6-6-6-6-6-6-6-6-6-6-6--| 
- -2-2-2-2-2-2-2-2-2-2-2-2-2-2-2-2-5-5-5-5-5-5-5-5-5-5-5-5-5-5-5-5--| 
- ------------------------------------------------------------------| 
- ------------------------------------------------------------------| 
- ------------------------------------------------------------------| 

Riff 12b - 03:54 - 04:37 
- -----------------------------------------------------------------| 
- -----------------------------------------------------------------| 
- -------------------------12br------10v---------------------------| 
- -10h12v---12--10h12v-----------------------------------14br------| 
- -------------------------------------------10/12-12/15-----------| 
- -----------------------------------------------------------------| 

- -----------------------------------------------------------------| 
- -----------------------------------------------------------------| 
- -----------------9br-----------10v---------------12b-------------| 
- -12v---------12------------10------------------------------------| 
- -----------------------------------------------------------------| 
- -----------------------------------------------------------------| 

- -------12~-----------------------13~---13~-------------15~-------| 
- ---15~-----15~-----------------------------13~-------13----------| 
- -14~-----------14---12-14br--------14~---------14~---------------| 
- -----------------------------------------------------------------| 
- -----------------------------------------------------------------| 
- -----------------------------------------------------------------| 

- -17------------17b-----17v---15------------------20b-------------| 
- ----15\13--15--------------------18------------------------------| 
- -----------------------------------------------------------------| 
- -----------------------------------------------------------------| 
- -----------------------------------------------------------------| 
- -----------------------------------------------------------------| 

- -------22----22----------22b---22----17------------------------------------| 
- -19-20----20----20-19-20-----------------18v-------------17--18-17---------| 
- --------------------------------------------------------------------17--19-| 
- ---------------------------------------------------------------------------| 
- ---------------------------------------------------------------------------| 
- ---------------------------------------------------------------------------| 

- -------22----22----------22br--------24b-20\---15/17-17--24b-24-24r-24br--22v-------------| 
- -19-20----20----20-19-20------------------------------------------------------------------| 
- ------------------------------------------------------------------------------------------| 
- ------------------------------------------------------------------------------------------| 
- ------------------------------------------------------------------------------------------| 
- ------------------------------------------------------------------------------------------| 

Riff 13 - 04:37 - 04:42 
- -0~----0~----0~------------------0~----0~----0~-------------------| 
- -3~----3~----3~------------------6~----6~----6~-------------------| 
- -2~----2~----2~------------------5~----5~----5~-------------------| 
- -0~----0~----0~------------------3~----3~----3~-------------------| 
- -0~----0~----0~------------------3~----3~----3~-------------------| 
- -0~----0~----0~------------------3~----3~----3~-------------------| 

- -0~----0~----0~------------------0~----0~----0~-------------------| 
- -3~----3~----3~------------------6~----6~----6~-------------------| 
- -2~----2~----2~------------------5~----5~----5~-------------------| 
- -0~----0~----0~------------------3~----3~----3~---------------7\--| 
- -0~----0~----0~------------------3~----3~----3~---------------7\--| 
- -0~----0~----0~------------------3~----3~----3~---------------7\--| 

Riff 14 - 04:42 - 05:49-----------------------------------------| - x4 
- ---------------------------------0-0---0-0---0-0---0-0---0-0-------| 
- ---3-3---3-3---3-3---3-3---3-3---6-6---6-6---6-6---6-6---6-6-------| 
- ---2-2---2-2---2-2---2-2---2-2---5-5---5-5---5-5---5-5---5-5-------| 
- ---0-0---0-0---0-0---0-0---0-0-------------------------------------| 
- -0-----0-----0-----00----0-----0-----3-----3-----33----3-----3333--| 
- -0-----0-----0-----00----0-----0-----3-----3-----33----3-----3333--| 
PM .     .     .     ..    .     .     .     .     ..    .     .... 

- ---------------------------------0-0---0-0---0-0---0-0---0-0-0-0--| 
- ---3-3---3-3---3-3---3-3---3-3---6-6---6-6---6-6---6-6---6-6-6-6--| 
- ---2-2---2-2---2-2---2-2---2-2---5-5---5-5---5-5---5-5---5-5-5-5--| 
- ---0-0---0-0---0-0---0-0---0-0------------------------------------| 
- -0-----0-----0-----00----0-----0-----3-----3-----33----3----------| 
- -0-----0-----0-----00----0-----0-----3-----3-----33----3----------| 
PM .     .     .     ..    .     .     .     .     ..    . 

Riff 15 - 05:20 - 06:12 
- --------------------------------------14------------------14b---------------------| 
- -------15----15----------15/17--15br------13v-------------------15v---------------| 
- -11/12----12----12-11/12----------------------------------------------------------| 
- ----------------------------------------------------------------------------------| 
- ----------------------------------------------------------------------------------| 
- ----------------------------------------------------------------------------------| 

- -------------14~---------14~------14~---14br----------20~-----------------20/-| 
- -------15~------------15~------15~---15~------15v-----------------------------| 
- -17~---------------17~------17~-------------------17--------------------------| 
- ------------------------------------------------------------------------------| 
- ------------------------------------------------------------------------------| 
- ------------------------------------------------------------------------------| 

- -/22--22-22-22-22-22-22-24-22------24-22----24-22----24-22----24-22-24-22-------------------| 
- -------------------------------22--------22-------22-------22-------------22\20-22-20\19/20-| 
- --------------------------------------------------------------------------------------------| 
- --------------------------------------------------------------------------------------------| 
- --------------------------------------------------------------------------------------------| 
- --------------------------------------------------------------------------------------------| 

- -----------------------------------------------22--24br------20----| 
- ---------------------------19b-------------------------------------| 
- -19v---------17h19v------------------------------------------------| 
- -------------------------------------------------------------------| 
- -------------------------------------------------------------------| 
- -------------------------------------------------------------------| 

- -22~-----------------------------20~-----------------------------22~-----------------------------| 
- -------------------------------------------------------------------------------------------------| 
- -------------------------------------------------------------------------------------------------| 
- -------------------------------------------------------------------------------------------------| 
- -------------------------------------------------------------------------------------------------| 
- -------------------------------------------------------------------------------------------------| 

Riff 16, Guitar 1 & 2 - 05:49 - 06:12 
- ------------------------------------------------------------------| 
- -3~----3~----3~------------------6~----6~----6~-------------------| 
- -2~----2~----2~------------------5~----5~----5~-------------------| 
- -0~----0~----0~------------------3~----3~----3~-------------------| 
- -0~----0~----0~------------------3~----3~----3~-------------------| 
- -0~----0~----0~------------------3~----3~----3~-------------------| 
- 
- ------------------------------------------------------------------| 
- ------------------------------------------------------------------| 
- -7~----7~----7~------------------10~---10~---10~------------------| 
- -x-----x-----x-------------------x-----x-----x--------------------| 
- -5~----5~----5~------------------8~----8~----8~-------------------| 
- ------------------------------------------------------------------| 


- ------------------------------------------------------------------| 
- -3~----3~----3~---------------------------------------------------| 
- -2~----2~----2~---------------------------------------------------| 
- -0~----0~----0~------------------0~----0~-------------------------| 
- -0~----0~----0~------------------0~----0~----0~-------------------| 
- -0~----0~----0~------------------0~----0~----0~-------------------| 
PM                                             . 
- ------------------------------------------------------------------| 
- ------------------------------------------------------------------| 
- -7~----7~----7~------------------7~----7~----7~-------------------| 
- -x-----x-----x-------------------x-----x-----x--------------------| 
- -5~----5~----5~------------------5~----5~----5~-------------------| 
- ------------------------------------------------------------------| 

Symbols 

PM... Palm Mute notes with (...) under them 
AP... Alternate Pick notes with (...) under them 
h     Hammer On 
p     Pull Off 
    Harmonic 
/     Slide Up 
\     Slide Down 
x     Dead Note 
b     Bend 
p     Pre-Bend 
r     Release Bend 
(x )  Play Notes x amount of times 
~     Let Ring 
/ 3 \ Notes are triplets (3 notes in the space of two) 
w\    Whammy Bar Down 
w/    Whammy Bar Up 
T     Right Hand Tap 

:) 
		  

See also:

tabs Guns N' Roses - Don't Cry tabs Aerosmith - Dream On tabs Guns N' Roses - Sweet Child o' mine tabs Guns N' Roses - Welcome to The Jungle tabs Rage Against The Machine - Killing In The Name (ver. 2) tabs The Doors - People Are Strange
e-chords

Other versions:

tabs August Burns Red - Broken Promises
auto scroll beats size up size down change color hide chords drawings
tab show chords e-chords YouTube Clip e-chords hide all tabs e-chords go to top tab

share with facebook