Audio Adrenaline

Man of God

Audio Adrenaline

tabs

save to print version add songbook text version e-mail correct tuner
chordsukulelecavacokeyboardtabbassdrumsharmonicaflute Guitar Pro
close

there isn't a video lesson for this song

chords

Man of God

Year: 1996 - Album: Bloom

	  		a~b --  legato slide (first note picked only) 
a/b --  slide, pick first note then slide down to the next
 
                      
|-------------------------------------------------|
|-------------------------------------------------|
|------------9 ~ 7--------------------------------|
|-------7------------9 ~ 7------------------------|
|--O--------------------------9---9 ~ 7---7 / 5---|
|-------------------------------------------------|

|-------------------------------------------------|
|-------------------------------------------------|
|------------9 ~ 7--------------------------------|
|-5-----7------------9 ~ 7------------------------|
|-----------------------------9---9 ~ 7---7 / 5---|                       
|-------------------------------------------------|
                                                    
|-------------------------------------------------|
|-------------------------------------------------|   Repeat that over and
|------------9 ~ 7--------------------------------|   over again through the
|--5----7------------9 ~7-------------------------|   verses.
|----------------------------9---9 ~ 7---7 / 5----|
|-------------------------------------------------|
   Use these chords through the chorus. It is very easy to
   figure out the order they go in. I am almost deaf and I
   can even do it.   G2   D    Em
                     
                     3    2    O
                     3    3    O
                     O    2    O
                     O    O    2
                     2         2
                     3         O

		  

Full key step upFull key step up
Half key step upHalf key step up
Half key step downHalf key step down
Full key step downFull key step down
hide glossary

See also:

tabs Bloodgood - Out of the darkness tabs Chris Tomlin - Not To Us tabs FFH - one of these days tabs Hank Williams - I'm So Lonesome I Could Cry tabs Audio Adrenaline - Free Ride tabs Caedmon's Call - Lead of Love
e-chords

Other versions:

tabs Audio Adrenaline - Man of God
auto scroll beats size up size down change color hide chords drawings
tab show chords e-chords YouTube Clip e-chords hide all tabs e-chords go to top tab

share