Ataxia

Union

Ataxia

tabs

by  VSWORLD

save to print version add songbook text version e-mail correct tuner
chordsukulelecavacokeyboardtabbassdrumsharmonicaflute Guitar Pro
close

there isn't a video lesson for this song

chords

Union

	  		
Intro: 

In the background, while the bass is playing the guitar strikes a chord. 

Gtr.1 

e|--------------------------------------| 
B|---------------------------------11~--| 
G|---------------------------------11~--| 
D|---------------------------------13~--| 
A|---------------------------------13~--| 
E|--------------------------------------| 

Verse: 

Gtr.1 

|----------------------------------------------------| 
|----------------------------------------------------| 
|----------------------------------------------------| 
|-13~-----------11-11--13-13-----------11-11--13-13--| 
|--------13-13------------------13-13----------------| 
|----------------------------------------------------| 

Gtr.2 

Plays silently in the background. 

|---------------------------11-----------------------| 
|-------------------------------14-11----14-11~------| 
|-------------------------------------13-------------| 
|----------------------------------------------------| 
|----------------------------------------------------| 
|----------------------------------------------------| 

Then: 

Gtr.1 

|--------------------------------------------------------| 
|--------------------------------------------------------| 
|-------------10~--11~---------------------10-10--11-11--| 
|-13~----13~--11~--13~----13-13~----13-13--11-11--13-13--| 
|--------13~------------------------13-13----------------| 
|--------------------------------------------------------| 

|--------------------------------------------------------------------| 
|-16161616161616161616161616161616------------1414141414141616161616-| 
|---------------------------------151515151515-----------------------| 
|--------------------------------------------------------------------| 
|--------------------------------------------------------------------| 
|--------------------------------------------------------------------| 

|--------------------------------------------------------------------| 
|-16161616161616161616161616161616------------1414141414141616161616-| 
|---------------------------------151515151515-----------------------| 
|--------------------------------------------------------------------| 
|--------------------------------------------------------------------| 
|--------------------------------------------------------------------| 


Gtr.1 

|-----------------------------------------------------------------| 
|-------11----11----14-14--16-16--------11----11----14-14--16-16--| 
|-11----11----11----13-13--15-15--11----11----11----13-13--15-15--| 
|-13----13----13----11-11--13-13--13----13----13----11-11--13-13--| 
|-13----13----13------------------13----13----13------------------| 
|-----------------------------------------------------------------| 

Gtr.2 

|----------------------------------------------| 
|----------------------------------------------| 
|----------------------------------------------|x4 
|--11-13-11-13-13-11-13--11-13-11-13-13-11-13--| 
|----------------------------------------------| 
|----------------------------------------------| 


Gtr.1 

|-1616161616161616161611111111111111-------------------------| 
|------------------------------------111111--141414--161616--| 
|------------------------------------111111--131313--151515--|x2 
|------------------------------------131313--111111--131313--| 
|------------------------------------131313------------------| 
|------------------------------------------------------------| 

Gtr.2 

|----------------------------------------------| 
|----------------------------------------------| 
|----------------------------------------------|x4 
|--11-13----13-13-11-13--11-13----13-13-11-13--| 
|----------------------------------------------| 
|----------------------------------------------| 


Gtr.1 

|-1616161616161616161611111111111111-------------------------| 
|------------------------------------111111--141414--161616--| 
|------------------------------------111111--131313--151515--|x2 
|------------------------------------131313--111111--131313--| 
|------------------------------------131313------------------| 
|------------------------------------------------------------| 

Gtr.2 

|----------------------------------------------| 
|----------------------------------------------| 
|----------------------------------------------|x4 
|--11-13----13-13-11-13--11-13----13-13-11-13--| 
|----------------------------------------------| 
|----------------------------------------------| 

Gtr.3 

|-16-16--16-14-------------14-13-------------16-14-------------14-13----| 
|--------------16-16-14-16-------16-16-14-16-------16-16-14-16-------16-| 
|-----------------------------------------------------------------------|x2 
|-----------------------------------------------------------------------| 
|-----------------------------------------------------------------------| 
|-----------------------------------------------------------------------| 


Gtr.1 

|------------------------------------------------------| 
|-11---------------------------------------------------| 
|-11-----------10-10--11-11---------------10-10--11-11-| 
|-13----13-13--11-11--13-13--13----13-13--11-11--13-13-| 
|-13----13-13----------------------13-13---------------| 
|------------------------------------------------------| 

Gtr.2 

|----------------------------------------------| 
|----------------------------------------------| 
|----------------------------------------------|x4 
|--11-13----13-13-11-13--11-13----13-13-11-13--| 
|----------------------------------------------| 
|----------------------------------------------| 

Breakdown: 

Play all of this until it comes to a break around 3:04. 

Gtr.1 

|-181818181818181814141414141414--------------141414141414141414-| 
|-------------------------------16161616181818-------------------| 
|----------------------------------------------------------------| 
|----------------------------------------------------------------| 
|----------------------------------------------------------------| 
|----------------------------------------------------------------| 

Gtr.2 

|----------------------------------------------| 
|----------------------------------------------| 
|----------------------------------------------| 
|--11-13----13-13-11-13--11-13----13-13-11-13--| 
|----------------------------------------------| 
|----------------------------------------------| 

Gtr.3 

|-----------------------------------------| 
|-16----14-16--16-14----16-14----16-14----| 
|--------------------15-------15-------15-| 
|-----------------------------------------| 
|-----------------------------------------| 
|-----------------------------------------| 

Gtr.4 

|----------------------------------------------------------------------| 
|----------------------------------------------------------11----------| 
|----13----11----13----11-13-11-------13----11----13----11----13-11----| 
|-13----13----13----13----------13-13----13----13----13-------------13-| 
|----------------------------------------------------------------------| 
|----------------------------------------------------------------------| 

Again: 

Gtr.1 

|------------------------------------------------------| 
|-----------------------------11-----------------------| 
|-----------------------------11-----------------------| 
|-13~-----------11-11--13-13--13---------11-11--13-13--| 
|--------13-13--------------------13-13----------------| 
|------------------------------------------------------| 

Then proceed with the first guitar. 

|--------------------------------------------------------------------| 
|-16161616161616161616161616161616------------1414141414141616161616-| 
|---------------------------------151515151515-----------------------|x2 
|--------------------------------------------------------------------| 
|--------------------------------------------------------------------| 
|--------------------------------------------------------------------| 


|-16161616161616161818181818181818------------141416161616xx---------| 
|-161616161616161616161616161616161616161616161414141414141616161616-| 
|---------------------------------151515151515------------1515151515-|x2 
|--------------------------------------------------------------------| 
|--------------------------------------------------------------------| 
|--------------------------------------------------------------------| 


|-------------------------------------------------------------| 
|-16--16--16-16--16--16--16-16--16--16--16-16--16--16--16-16--| 
|-18b-18b-18b18b-18b-18b-18b18b-18b-18b-18b18b-18b-18b-18b18b-|x2 
|-------------------------------------------------------------| 
|-------------------------------------------------------------| 
|-------------------------------------------------------------| 

|-16161616161616161616161616161616-----------------------------------| 
|-161616161616161616161616161616161616161616161414141414141616161616-| 
|---------------------------------151515151515------------1515151515-|x2 
|--------------------------------------------------------------------| 
|--------------------------------------------------------------------| 
|--------------------------------------------------------------------| 

Play this until it ends(11's, not 1's) 

|---------------------------------------------------------| 
|-1111x11x11x11-1111x11x11x11-1111x11x11x11-1111x11x11x11-| 
|-1111x11x11x11-1111x11x11x11-1111x11x11x11-1111x11x11x11-| 
|---------------------------------------------------------| 
|---------------------------------------------------------| 
|---------------------------------------------------------| 

That's it hope it helps.Gonna put Dot Hacker's Elevator soon so keep an eye out. 
		  

auto scroll beats size up size down change color hide chords drawings
tab show chords e-chords YouTube Clip e-chords hide all tabs e-chords go to top tab

share