Asa de Águia

home > Asa de Águia

Gladiador Tab

Asa de Águia

Difficulty: nolevelnolevel

by rodrigopfs

tuner correct add songbook print version text version save to e-mail
chordsukulelecavacokeyboardtabbassdrumsharmonicsflute Guitar Pro
chords

Gladiador

Year: 2004 - Album: Asa de Aguia

(Duma / Lelys)

	  Esta é para todos os fãs de Asa que não encontram em canto nenhum o solo de uma das  
melhores músicas de Asa de Águia!! qualquer dúvida ou sugestão sobre as minhas cifras 
postas no site, ou sobre esse solo, podem me mandar um e-mail. Eu responderei com atenção!   
Espero que gostem...eu mesmo tirei no meu violão!  
Abraço a todos!   


e |-9-9-12--10-9-7--4-5-7-5-4-9-5-2--9-9-7-10--9--5--7-9--9-9-9-10-9-7-------  
b |------------------------------------------------------------------------------------------ 
g |------------------------------------------------------------------------------------------ 
d |------------------------------------------------------------------------------------------  
a |------------------------------------------------------------------------------------------  
E |------------------------------------------------------------------------------------------  

e |-4-5-7--5-4-2-5-2--5-5-7-9b--7-9-7--9-12-10-9-12-10-9-12--10-9-7---------  
b |------------------------------------------------------------------------------------------  
g |------------------------------------------------------------------------------------------ 
d |------------------------------------------------------------------------------------------  
a |------------------------------------------------------------------------------------------  
E |-----------------------------------------------------------------------------------------  

e |-4-5-7-5-4-9-5-2--9-9-7-10--9--5--7-9--9-9-9-10-9-7--4-5-7--5-4-2-5-2-----  
b |------------------------------------------------------------------------------------------ 
g |------------------------------------------------------------------------------------------ 
d |------------------------------------------------------------------------------------------  
a |------------------------------------------------------------------------------------------  
E |------------------------------------------------------------------------------------------ 

e |-5-5-7-10--9--5--7--5----------------------------------------------------------------------  
b |-------------------------------------------------------------------------------------------  
g |-------------------------------------------------------------------------------------------  
d |------------------------------------------------------------------------------------------- 
a |-------------------------------------------------------------------------------------------  
E |-------------------------------------------------------------------------------------------  


FIM  
by Rodrigo Paulino! 

	  

there isn't a video lesson for this song

request
Search Paypal
auto scroll beats size up size down change color hide chords drawings
tab show chords e-chords YouTube Clip e-chords hide all tabs e-chords go to top tab