Asa de Águia

home > Asa de Águia

Bota Pra Ferver Tab

Asa de Águia

Difficulty: ExpertExpert

by Ringoguitar

tuner correct add songbook print version text version save to e-mail
chordsukulelecavacokeyboardtabbassdrumsharmonicsflute Guitar Pro
chords

Bota Pra Ferver

Year: 1997 - Album: Ao Vivo

	  E)--------------------------------------------------------------------------------------------------------------  
B)-8-8-8-6-4-3------------8--------8-6-4-3------8-8-8-6-4-3-------------8------8-6-4-3--13-11  
G)----------------5-8-8-10------------------------------------------5-8-8-10----------------------------  
D)-------------------------------10---------------------------------------------------10---------------------  
A)--------------------------------------------------------------------------------------------------------------  
E)--------------------------------------------------------------------------------------------------------------  


para a galera q gosta do Asa de Aguia, esse é o solo q Durval usa na entra  
da da musica!!!  
essa musica tem ainda outro solo no final,mas ai eu naum sei se faz de im  
provisso  
ou se é da musica msm                                                                            

[email protected] (representando Campos ai no cifras)para   
duvidas e correções  
vlw  

--------------------------------- 
-------------------------------- 

Júlio Mendes: 

Galera , tentei pegar o solinho do final de ouvido mas como ele muda muito nas musicas e improvisa bastante pra animar, eu acabei pegando só a base deles ok? 


E)-----12-------12-10---------------12-------------10-12-------------12-10--------------------- 
B)-------------------------12-11-9---------------12---------9--------------------12--9-------------G  
D)----------------------------------------------------------------------------------------------------------  
A)---------------------------------------------------------------------------------------------------------- 
E)---------------------------------------------------------------------------------------------------------- 

Com o vibrato fica mais bonito =) 

	  

there isn't a video lesson for this song

request
Search Paypal
auto scroll beats size up size down change color hide chords drawings
tab show chords e-chords YouTube Clip e-chords hide all tabs e-chords go to top tab