As Tall As Lions

home > As Tall As Lions

Lost My Mind Tab

As Tall As Lions

Difficulty: nolevelnolevel

by hebealmeida

tuner correct add songbook print version text version save to e-mail
chordsukulelecavacokeyboardtabbassdrumsharmonicsflute Guitar Pro
chords

Lost My Mind

  		

part a 

eb-----------------------------------------------------| 
bb-----------------------------------------------------| 
gb--3----------------7-----------------2---------------| 
db-----------------------------------------------------| 
ab-----------------------------------------------------| 
eb--3----------------6-----------------1---------------| 

 play this 3 times then 

part b 


eb-----------------------------------------------------| 
bb---4------------------------------------8----6----4--| 
gb----------7-----3-------2----------------------------| 
db-----------------------------------------------------| 
ab---3------------------------------------6----5----3--| 
eb----------6-----3-------1----------------------------| 

play part a 3 times then part b once, that gets played twice then the really cool bridge 

eb--------------------------------------------------| 
bb--------------------1--3------6----------------1--| 
gb---7------10-----3---------------7--5----7--------| 
db--------------------------------------------------| 
ab---6-------8-----------------------------6--------| 
eb-----------------3------------6----------------1--| 



eb-------------------------------------------------------| 
bb------1--3------6-----------8-----10-----10-----11-----| 
gb----3---------------7--5------7------10-----11------12-| 
db-------------------------------------------------------| 
ab----------------------------6-----8------9------10-----| 
eb----3------------6-------------------------------------| 


eb---------------------------------------------------6--------| 
bb---8-------8-------6-----4-------4---------------------6----| 
gb------7------7-----5-------3--------3------7-------------7--| 
db--------8----------7---------5--------5------8--------------| 
ab---6-------6-------5-----3------3---------------8-----------| 
eb-------------------------------------------6-------6--------| 


eb------------------------------------------------| 
bb---8-------6---------4--------------------------| 
gb---7-------5---------3--------------------------| 
db---8-------7---------5--------------------------| 
ab---6-------5---------3--------------------------| 
eb------------------------------------------------| 
	  

Search Paypal
auto scroll beats size up size down change color hide chords drawings
tab show chords e-chords YouTube Clip e-chords hide all tabs e-chords go to top tab