As Tall As Lions

home > As Tall As Lions

I'm Kicking Myself Tab

As Tall As Lions

Difficulty: nolevelnolevel

by abelamin

tuner correct add songbook print version text version save to e-mail
chordsukulelecavacokeyboardtabbassdrumsharmonicsflute Guitar Pro
chords

I'm Kicking Myself

  		Capotraste 1 
(-)= continuous strumming/picking. (picking and strumming patterns vary) 

Intro 

e---------------|---------------|---------------|---------------|---| 
B-------1-------|-------1------1|-------1-------|-------1-------|---| 
G-----2----2---2|-----2------2--|----------2---2|----------2---2|---| 2x 
D--3---------3--|--2-------0----|-----3------3--|-----3------3--|---| 
A---------------|---------------|--3------------|--3------------|---| 
E---------------|---------------|---------------|---------------|---| 

Intro (bridge 1) 

e---------------|(-)-|-------------------|(-)-|---| 
B--1--1--1--1---|(-)-|--1--1--1------1---|(-)-|---| 
G--3--2--0--2---|(-)-|--3--2--0-(0)--2---|(-)-|---| 
D--3--3--3--3---|(-)-|--3--3--3--3---0---|(-)-|---| 
A---------------|----|---------------1---|(-)-|---| 
E---------------|----|-------------------|----|---| 

Verse 

e---------------|----------|---------------|---------------|---| 
B-------1------1|-------1--|-------1-------|-------1-------|---| 
G-----2------2--|-----2----|----------2---2|----------2---2|---| 3x 
D--3------2-----|--0-------|-----3------3--|-----3------3--|---| 
A---------------|----------|--3------------|--3------------|---| 
E---------------|----------|---------------|---------------|---| 

  broken voice on the telephone... 

|Bridge 1| 

|Verse| 

Bridge 2 

e---------------|(-)-|------------|-----------|--0--|(-)-|---| 
B--1--1--1--1---|(-)-|--1----1----|-1---------|--1--|(-)-|---| 
G--3--2--0--2---|(-)-|--3----2----|-0---(0)---|--0--|(-)-|---| 
D--3--3--3--3---|(-)-|--3----3----|-3----3----|--2--|(-)-|---| 
A---------------|----|------------|-----------|--3--|(-)-|---| 
E---------------|----|------------|-----------|-----|----|---| 

Chorus 

e---------------|     |-(-)---(-)---|     |-(-)---(-)---|     |--0---(-)--| 
B--1---(-)------|     |--1----(-)---|     |--1----(-)---|     |--1---(-)--| 
G--2---(-)------|4x   |--2----(-)---|4x   |--2----(-)---|4x   |--0---(-)--|4x 
D--3---(-)------|     |--0----(-)---|     |--0----(-)---|     |--2---(-)--| 
A---------------|     |--0----(-)---|     |--1----(-)---|     |--3---(-)--| 
E---------------|     |-------------|     |-------------|     |-----------| 

Hey babe, I feel      Failed you, I feel     Want me...I keep   self... 
       as though I've     as though you dont       kicking my- 
	  

Search Paypal
auto scroll beats size up size down change color hide chords drawings
tab show chords e-chords YouTube Clip e-chords hide all tabs e-chords go to top tab