As Tall As Lions

home > As Tall As Lions

Hidden Track Tab

As Tall As Lions

Difficulty: nolevelnolevel

by hebealmeida

tuner correct add songbook print version text version save to e-mail
chordsukulelecavacokeyboardtabbassdrumsharmonicsflute Guitar Pro
chords

Hidden Track

  		
Intro 1 Guitar 1: 
Eb|-12~---9---------0~----2--0----| 
Bb|-10~---10--------5~-----5------| 
F#|-9~----9---------4~---4--4-----| 
C#|-------------------------------| 
G#|-------------------------------| 
C#|-------------------------------| 

Intro 2 Guitar 1: 
Eb|-12~---9----7-9-----0~---------------------| 
Bb|-10~---10-----------5~---------------------| 
F#|-9~----9------------4~---4-4-4-4h6-6-6-6---| 
C#|-------------------------------------------| 
G#|-------------------------------------------| 
C#|-------------------------------------------| 

Intro Guitar 2: 
Eb|-------0~---| 
Bb|-7~----5~---| 
F#|-7~----4~---| 
C#|-7~----2~---| 
G#|-5~----0~---| 
C#|------------| 

Riff: 
Eb|------9------9------9------9------9------9------7------7-----| 
Bb|----10-10--10-10--10-10--10-10--10-10--10-10--10-10--10-10---| 
F#|--11-----11-----11-----11-----9------9------9-------9--------| 
C#|-------------------------------------------------------------| 
G#|-------------------------------------------------------------| 
C#|-------------------------------------------------------------| 

Chorus Guitar 1: 
Eb|-12~---9---------0~----2--0----| 
Bb|-10~---10--------5~-----5------| 
F#|-9~----9---------4~---4--4-----| 
C#|-------------------------------| 
G#|-------------------------------| 
C#|-------------------------------| 

Chorus Guitar 2: 
Eb|-------0~---| 
Bb|-7~----5~---| 
F#|-7~----4~---| 
C#|-7~----2~---| 
G#|-5~----0~---| 
C#|------------| 

Bridge: 
Eb|-2-2-2-2-2-2-2-2---------------------------------|---------------| 
Bb|-5-5-5-5-5-5-5-5---------------------------------|---------------| 
F#|-2-2-2-2-2-2-2-2---7-7-7-7-7-7-7-7--2-2-2-2-2-2--|---------------| 
C#|-4-4-4-4-4-4-4-4---5-5-5-5-5-5-5-5--0-0-0-0-0-0--|-4-4-4-4-4-4---| 
G#|-2-2-2-2-2-2-2-2---5-5-5-5-5-5-5-5--0-0-0-0-0-0--|-4-4-4-4-4-4---| 
C#|-------------------5-5-5-5-5-5-5-5--0-0-0-0-0-0--|-4-4-4-4-4-4---| 
	  

Search Paypal
auto scroll beats size up size down change color hide chords drawings
tab show chords e-chords YouTube Clip e-chords hide all tabs e-chords go to top tab