As Tall As Lions

home > As Tall As Lions

505 Tab

As Tall As Lions

Difficulty: nolevelnolevel

by abelamin

tuner correct add songbook print version text version save to e-mail
chordsukulelecavacokeyboardtabbassdrumsharmonicsflute Guitar Pro
chords

505

  		(Acoustic) 
e|---------3-------------7-----------3------------7--------7------------7------| 
B|---------3-------------8-----------3------------7--------8--8---------7------| 
G|---------0-------------9-----------0------------7--------9----9-------7------| 
D|---------------------------------------------------------9------------9------| 
A|-----------------5/7----------------------------------7--7------------9------| 
E|---3---------------------------3-----------5/7--------------------7---7------| 

e|-----7-----------7---------------5-----------3-----------------------------| 
B|-----8----8------7--------------5-----------4------------------------------| 
G|-----9-----7-----7-------------6-----------0-------------------------------| 
D|-----9-----------9------------7-----------4--------------------------------| 
A|--7--7-----------9-----------7--------3--3---------------------------------| 
E|-------------7---7----------5----------------------------------------------| 
          (Electric) 
e|-------------------------2-----------------------2-----2---------------------| 
B|------------------------3-------------------------3-----3--------------------| 
G|------0----------------0------------------------------4--4-------------------| 
D|----4-----(2x)--------0-----(play a few times)-------------------------------| 
A|--3------------------2-------------------------------------------------------| 
E|--------------------3--------------------------------------------------------| 
	  

Search Paypal
auto scroll beats size up size down change color hide chords drawings
tab show chords e-chords YouTube Clip e-chords hide all tabs e-chords go to top tab