Armandinho & Banda

home > Armandinho & Banda

Outra noite que se vai Tab

Armandinho & Banda

Difficulty: BeginnerBeginner

by %5F%5FP%5F%5F

tuner correct add songbook print version text version save to e-mail
chordsukulelecavacokeyboardtabbassdrumsharmonicsflute Guitar Pro
chords

Outra noite que se vai

Year: 2006 - Album: Armandinho ao Vivo

  		(solo) 
E|----------------------------------------------------------------------------| 
B|----------------------------------------------------------13\12-------------| 
G|--7/12~--11/12\11\9-----------------------12\11--9--------------12\----12---| 
D|--------------------9---9\7-5/7-7/9--9~-9----------9\8-6~-----------7\------| 
A|----------------------------------------------------------------------------| 
E|----------------------------------------------------------------------------| 

(riff 1) 
E|-------------| 
B|--13\12~-----| 
G|-------------| 
D|-------------| 
A|-------------| 
E|-------------| 

(riff 2) 
E|-------------| 
B|-------------| 
G|--7/12~------| 
D|-------------| 
A|-------------| 
E|-------------| 

E|-------------| 
B|-------------| 
G|--7/12~------| 
D|-------------| 
A|-------------| 
E|-------------| 

(pré-solo) 
E|--------------------------------------------------------------------------------------| 
B|--13\12------------12------------------------------13\12--------------------------13--| 
G|--------12----7/12----12--12---12\11--11/12-9--9\8-------12--12\11--11/12-9--9\8--13--| 
D|--------------------------------------------------------------------------------------| 
A|--------------------------------------------------------------------------------------| 
E|--------------------------------------------------------------------------------------| 

E|-------------| 
B|--13\12~-----| 
G|-------------| 
D|-------------| 
A|-------------| 
E|-------------| 

(riff) 
E|--15\14---------------| 
B|--------14--11/12-----| 
G|----------------------| 
D|----------------------| 
A|----------------------| 
E|----------------------| 

E|-------------| 
B|-------------| 
G|--7/12~------| 
D|-------------| 
A|-------------| 
E|-------------| 

(pré-solo 2) 
E|--------------------------------------------------------------------------------------| 
B|--13\12------------12------------------------------------------13\12------------------| 
G|--------12----7/12----12--7/12-12--12\11--11/12-9~--9\8---7/12-------11-11/12-9--9\8--| 
D|--------------------------------------------------------------------------------------| 
A|--------------------------------------------------------------------------------------| 
E|--------------------------------------------------------------------------------------| 

(solo 2) 
E|--------------------------------------------------------------------------------------| 
B|------------------------------------------------------------------13\12---------------| 
G|--7/12----11/12\11\9-------------------------12\11---9------------------12\----12-----| 
D|----------------------9---9\7-5/7-7/9-9~--9------------9\7--3/5~------------7\--------| 
A|--------------------------------------------------------------------------------------| 
E|--------------------------------------------------------------------------------------| 

(riff) 
E|--15\14-14---18/19----| 
B|------------------19--| 
G|----------------------| 
D|----------------------| 
A|----------------------| 
E|----------------------| 

(pré-solo 3) 
E|--------------------------------------------------------------------------------------| 
B|--13/12-------------------------------------------13/12-------------------------------| 
G|--------12----7/12-12----12/11-11---11/12-9---9/8-------12--12/11-11--11/12-9---9/8---| 
D|--------------------------------------------------------------------------------------| 
A|--------------------------------------------------------------------------------------| 
E|--------------------------------------------------------------------------------------| 

(solo 3) 
E|--------------------------------------------------------------| 
B|------------------------------------------------13\12--13\12--| 
G|--7/12-12--11/12-11\9-9---------------------------------------| 
D|------------------------9--9\7--5/7--7/9--7\5-5---------------| 
A|--------------------------------------------------------------| 
E|--------------------------------------------------------------| 

E|--------------------------------------------------------------| 
B|----------------------------------------------------13/12-----| 
G|--7/12-12---11/12-11/9-9---------------------------------12/--| 
D|----------------------------7/9----9/7--5/7/5--5-/------------| 
A|--------------------------------------------------------------| 
E|--------------------------------------------------------------| 

E|-----------------------------------------------------------------------------------------| 
B|-----------------------------------------------13\12-12---------------------------13\12--| 
G|------12--11/12-11\9-9----------------------------------12-12-/7-----------------------12| 
D|-7/12------------------7/9--9\7--5/7-7/9-9--9--------------------12-/7-7/9\7--5-5--------| 
A|-----------------------------------------------------------------------------------------| 
E|-----------------------------------------------------------------------------------------| 
	  

Search Paypal
auto scroll beats size up size down change color hide chords drawings
tab show chords e-chords YouTube Clip e-chords hide all tabs e-chords go to top tab