Ariel Pinks Haunted Graffiti

Hardcore Pops Are Fun

Ariel Pinks Haunted Graffiti

tabs

by  GUSTSILVA

save to print version add songbook text version e-mail correct tuner
chordsukulelecavacokeyboardtabbassdrumsharmonicaflute Guitar Pro
close

there isn't a video lesson for this song

chords

Hardcore Pops Are Fun

	  		INTRO/Chorus: 
Guitars I + II 
    Fm7      D#             A#                      Fm7      D#             A# 
F |-------------------------0-----0-----0--0--0-----------------------------0-----0-----0--0--0----| 
C |-7--10----8-----7--------5-----5-----5--5--5-----7--10----8-----7--------5-----5-----5--5--5----| 
G#|-7--7-----7----(7)-------6-----6-----6--6--6-----7--7-----7-----7--------6-----6-----6--6--6----| 
D#|-7--7-----9----(7)----7--7-----7-----7--7--7-----7--7-----9-----7-----7--7-----7-----7--7--7----| 
A#|------------------------------------------------------------------------------------------------| 
F |------------------------------------------------------------------------------------------------| 



VERSE I: 
Guitars I + II 
    Fm9                     Gm                      G# 
F |(2)----2--2--2--2-------(0)----0--0--0--0-------(0)----0--0--0--0-------|| 
C |(3)----3--3--3--3-------(2)----2--2--2--2-------(3)----3--3--3--3-------|| 
G#|-0-----0--0--0--0--------2-----2--2--2--2--------4-----4--4--4--4-------|| x 7 
D#|-2-----2--2--2--2--------4-----4--4--4--4--------5-----5--5--5--5-------|| 
A#|-2-----2--2--2--2--------4-----4--4--4--4--------5-----5--5--5--5-------|| 
F |-------------------------2-----------------------3----------------------|| 
+ 
    Fm9                     Gm                      G# 
F |(2)----2--2--2--2-------(0)----0--0--0--0-------(4)----4--4--4--4-------| 
C |(3)----3--3--3--3-------(2)----2--2--2--2-------(4)----4--4--4--4-------| 
G#|-0-----0--0--0--0--------2-----2--2--2--2--------4-----4--4--4--4-------| 
D#|-2-----2--2--2--2--------4-----4--4--4--4--------4-----4--4--4--4-------| 
A#|-2-----2--2--2--2--------4-----4--4--4--4--------2-----2--2--2--2-------| 
F |-------------------------2----------------------------------------------| 
+ 
    Fm7                     G#                      G 
F |-0-----0--0--0--0-------(3)----3--3--3--3--------2-----2--2--2--2-------| 
C |-3-----3--3--3--3-------(3)----3--3--3--3--------2-----2--2--2--2-------| 
G#|-0-----0--0--0--0--------4-----4--4--4--4--------3-----3--3--3--3-------| 
D#|-2-----2--2--2--2--------5-----5--5--5--5--------4-----4--4--4--4-------| 
A#|-2-----2--2--2--2--------5-----5--5--5--5--------4-----4--4--4--4-------| 
F |-------------------------3-----------------------2----------------------| 



Pre-Chorus 
Guitar I 
    Fm                      A#                      Fm 
F |-------7--------7--------------9--------12-------------7--------7-------| 
C |-------8--------10-------------10-------10-------------8--------10------| 
G#|-------9--------9--------------9--------9--------------9--------9-------| 
D#|------------------------------------------------------------------------| 
A#|------------------------------------------------------------------------| 
F |------------------------------------------------------------------------| 
+ 
    A#                      Fm                      A# 
F |-------9--------12-------------7--------7--------------9--------12------| 
C |-------10-------10-------------8--------10-------------10-------10------| 
G#|-------9--------9--------------9--------9--------------9--------9-------| 
D#|------------------------------------------------------------------------| 
A#|------------------------------------------------------------------------| 
F |------------------------------------------------------------------------| 



Pre-Chorus 
Guitar II 
    Fm                      A#                      Fm 
F |-0-----0--0--0--0--0--x--0-----0--0--0--0--0--x--0-----0--0--0--0--0--x-| 
C |-0-----0--0--0--0--0--x--2-----2--2--2--2--2--x--0-----0--0--0--0--0--x-| 
G#|-0-----0--0--0--0--0--x--2-----2--2--2--2--2--x--0-----0--0--0--0--0--x-| 
D#|-2-----2--2--2--2--2--x--2-----2--2--2--2--2--x--2-----2--2--2--2--2--x-| 
A#|-2-----2--2--2--2--2--x--0-----0--0--0--0--0--x--2-----2--2--2--2--2--x-| 
F |-0-----0--0--0--0--0--x--------------------------0-----0--0--0--0--0--x-| 
+ 
    A#                      Fm                      A# 
F |-0-----0--0--0--0--0--x--0-----0--0--0--0--0--x--0-----0--0--0--0--0--x-| 
C |-2-----2--2--2--2--2--x--0-----0--0--0--0--0--x--2-----2--2--2--2--2--x-| 
G#|-2-----2--2--2--2--2--x--0-----0--0--0--0--0--x--2-----2--2--2--2--2--x-| 
D#|-2-----2--2--2--2--2--x--2-----2--2--2--2--2--x--2-----2--2--2--2--2--x-| 
A#|-0-----0--0--0--0--0--x--2-----2--2--2--2--2--x--0-----0--0--0--0--0--x-| 
F |-------------------------0-----0--0--0--0--0--x-------------------------| 



INTERLUDE: 
Guitar I 
    Fm7      D#             A#                      Fm7      D#             A# 
F |-10-x--7--x--5--x--3----/5-----5--5--5--5--5--x--10-x--7--x--5--x--3----/5-----5--5--5--5--5--x-| 
C |-10-x--7--x--5--x--3----/5-----5--5--5--5--5--x--10-x--7--x--5--x--3----/5-----5--5--5--5--5--x-| 
G#|-------------------4----/6-----6--6--6--6--6--x--------------------4----/6-----6--6--6--6--6--x-| 
D#|------------------------------------------------------------------------------------------------| 
A#|------------------------------------------------------------------------------------------------| 
F |------------------------------------------------------------------------------------------------| 



INTERLUDE: 
Guitar II 
    Fm7      D#             A#                      Fm7      D#             A# 
F |-------------------------0-----0-----0--0--0-----------------------------0-----0-----0--0--0----| 
C |-7--10----8-----7--------5-----5-----5--5--5-----7--10----8-----7--------5-----5-----5--5--5----| 
G#|-7--7-----7----(7)-------6-----6-----6--6--6-----7--7-----7-----7--------6-----6-----6--6--6----| 
D#|-7--7-----9----(7)----7--7-----7-----7--7--7-----7--7-----9-----7-----7--7-----7-----7--7--7----| 
A#|------------------------------------------------------------------------------------------------| 
F |------------------------------------------------------------------------------------------------| 



VERSE II: 
Guitars I + II 
    Fm9                     Gm                      G# 
F |(2)----2--2--2--2-------(0)----0--0--0--0-------(0)----0--0--0--0-------|| 
C |(3)----3--3--3--3-------(2)----2--2--2--2-------(3)----3--3--3--3-------|| 
G#|-0-----0--0--0--0--------2-----2--2--2--2--------4-----4--4--4--4-------|| x 4 
D#|-2-----2--2--2--2--------4-----4--4--4--4--------5-----5--5--5--5-------|| 
A#|-2-----2--2--2--2--------4-----4--4--4--4--------5-----5--5--5--5-------|| 
F |-------------------------2-----------------------3----------------------|| 
+ 
    Fm9                     Gm                      G# 
F |-------2--2--2--2--------0--0--0--0--0--0--------4-----4--4-----4-------| 
C |-------3--3--3--3--------2--2--2--2--2--2--------4-----4--4-----4-------| 
G#|-0-----0--0--0--0--------2--2--2--2--2--2--------4-----4--4-----4-------| 
D#|-2-----2--2--2--2--------4--4--4--4--4--4--------4-----4--4-----4-------| 
A#|-2-----2--2--2--2--------4--4--4--4--4--4--------2-----2--2-----2-------| 
F |-------------------------2----------------------------------------------| 
+ 
    Fm7                     G#                      G 
F |-0-----0--0--0--0--------------3-----3--3--------------2-----2--2-------| 
C |-3-----3--3--3--3--------------3-----3--3--------------2-----2--2-------| 
G#|-0-----0--0--0--0--------------4-----4--4--------3-----3-----3--3-------| 
D#|-2-----2--2--2--2--------5-----5-----5--5--------4-----4-----4--4-------| 
A#|-2-----2--2--2--2--------5-----5-----5--5--------4-----4-----4--4-------| 
F |-------------------------3-----------------------2----------------------| 



Chorus LEAD: 
Guitar I 
    Fm7      D#             A#                      Fm7      D#             A# 
F |-------------------------0-----0-----0--0--0-----18---------------------------------------------| 
C |-7--10----8-----7--------5-----5-----5--5--5-----------18-------------16-------15----13----11---| 
G#|-7--7-----7----(7)-------6-----6-----6--6--6----------------------------------------------------| 
D#|-7--7-----9----(7)----7--7-----7-----7--7--7----------------------------------------------------| 
A#|------------------------------------------------------------------------------------------------| 
F |------------------------------------------------------------------------------------------------| 



BRIDGE I: 
Guitar I 
    C#6                     Cm                      A#6                     C#6/G# 
F |-5-----5--5--5--5--5--x--2-----2--2--2--2--2--x--2-----2--2--2--2--2--x--5-----5--5--5--5--5--x-|| 
C |-5-----5--5--5--5--5--x--3-----3--3--3--3--3--x--2-----2--2--2--2--2--x--5-----5--5--5--5--5--x-|| 
G#|-5-----5--5--5--5--5--x--4-----4--4--4--4--4--x--2-----2--2--2--2--2--x--5-----5--5--5--5--5--x-|| x 3 
D#|-5-----5--5--5--5--5--x--4-----4--4--4--4--4--x--2-----2--2--2--2--2--x--5-----5--5--5--5--5--x-|| 
A#|------------------------------------------------------------------------------------------------|| 
F |------------------------------------------------------------------------------------------------|| 
+ 
    C#6                     Cm                      A#6/D                   C#6/A# 
F |-5-----5--5--5--5--5--x--2-----2--2--2--2--2--x-------------------------------------------------| 
C |-5-----5--5--5--5--5--x--3-----3--3--3--3--3--x-----------3-------------------------------------| 
G#|-5-----5--5--5--5--5--x--4-----4--4--4--4--4--x--------2-----4-------/5-----4--2-p0-/4~---------| 
D#|-5-----5--5--5--5--5--x--4-----4--4--4--4--4--x--2-h4-------------------------------------------| 
A#|------------------------------------------------------------------------------------------------| 
F |------------------------------------------------------------------------------------------------| 
+ 
    C#6/G#                  Cm                      A#6 
F |------------------------------------------------------------------------------------------------| 
C |------------------------------------------------------------------------------------------------| 
G#|------------------------------------------------------------------------------------------------| 
D#|-2-h4-------------------------------------------------------------------------------------------| 
A#|-------------------------2-----------------------0----------------------------------------------| 
F |-3----------------------------------------------------------------------------------------------| 
+ 
    A#6 
F |------------------------------------------------| 
C |-------------3----------------------------------| 
G#|-------2-/4-----4----/5-----4--2-p0-/4~---------| 
D#|-2-h4-------------------------------------------| 
A#|------------------------------------------------| 
F |------------------------------------------------| 



BRIDGE I: 
Guitar II 
    C#6                     Cm                      A#6                     C#6/G# 
F |------------------------------------------------------------------------------------------------| 
C |------------------------------------------------------------------------------------------------| 
G#|------------------------------------------------------------------------------------------------| 
D#|------------------------------------------------------------------------------------------------| 
A#|-3-----------------------2-----------------------0----------------------------------------------| 
F |-------------------------------------------------------------------------3----------------------| 
+ 
    C#6                     Cm                      A#6/D                   C#6/A# 
F |------------------------------------------------------------------------------------------------| 
C |------------------------------------------------------------------------------------------------| 
G#|------------------------------------------------------------------------------------------------| 
D#|------------------------------------------------------------------------------------------------| 
A#|-3-----------------------2-----------------------4-----------------------0----------------------| 
F |------------------------------------------------------------------------------------------------| 
+ 
    C#6/G#                  Cm                      A#6                     C#6/D# 
F |------------------------------------------------------------------------------------------------| 
C |------------------------------------------------------------------------------------------------| 
G#|------------------------------------------------------------------------------------------------| 
D#|------------------------------------------------------------------------------------------------| 
A#|-------------------------2-----------------------0-----------------------5----------------------| 
F |-3----------------------------------------------------------------------------------------------| 
+ 
    C#6/G#                  Cm                      A#6 
F |------------------------------------------------------------------------------------------------| 
C |------------------------------------------------------------------------------------------------| 
G#|------------------------------------------------------------------------------------------------| 
D#|------------------------------------------------------------------------------------------------| 
A#|-------------------------2-----------------------0----------------------------------------------| 
F |-3----------------------------------------------------------------------------------------------| 
+ 
    A#6 
F |------------------------------------------------| 
C |------------------------------------------------| 
G#|------------------------------------------------| 
D#|------------------------------------------------| 
A#|-0----------------------------------------------| 
F |------------------------------------------------| 



VERSE III: 
Guitars I + II 
    Fm9                     Gm                      G# 
F |(2)----2--2--2--2-------(0)----0--0--0--0-------(0)----0--0--0--0-------|| 
C |(3)----3--3--3--3-------(2)----2--2--2--2-------(3)----3--3--3--3-------|| 
G#|-0-----0--0--0--0--------2-----2--2--2--2--------4-----4--4--4--4-------|| x 3 
D#|-2-----2--2--2--2--------4-----4--4--4--4--------5-----5--5--5--5-------|| 
A#|-2-----2--2--2--2--------4-----4--4--4--4--------5-----5--5--5--5-------|| 
F |-------------------------2-----------------------3----------------------|| 
+ 
    Fm9                     Gm                      G# 
F |-------2--2--2--2--------0--0--0--0--0--0--------------4--4--4--4--4--x-| 
C |-------3--3--3--3--------2--2--2--2--2--2--------------4--4--4--4--4--x-| 
G#|-0-----0--0--0--0--------2--2--2--2--2--2--------------4--4--4--4--4--x-| 
D#|-2-----2--2--2--2--------4--4--4--4--4--4--------4-----4--4--4--4--4--x-| 
A#|-2-----2--2--2--2--------4--4--4--4--4--4--------2-----2--2--2--2--2--x-| 
F |-------------------------2----------------------------------------------| 
+ 
    Fm7                     G#                      G 
F |-0-----0--0--0--0--0--x--------3--3--3--3--x-----2-----2--2--2--2--x----| 
C |-3-----3--3--3--3--3--x--------3--3--3--3--x-----2-----2--2--2--2--x----| 
G#|-0-----0--0--0--0--0--x--------4--4--4--4--x-----3-----3--3--3--3--x----| 
D#|-2-----2--2--2--2--2--x--5-----5--5--5--5--x-----4-----4--4--4--4--x----| 
A#|-2-----2--2--2--2--2--x--5-----5--5--5--5--x-----4-----4--4--4--4--x----| 
F |-------------------------3-----------------------2----------------------| 



BRIDGE I: 
Guitar I 
    C#6                     Cm                      A#6                     C#6/G# 
F |-5-----5--5--5--5--5--x--2-----2--2--2--2--2--x--2-----2--2--2--2--2--x--5-----5--5--5--5--5--x-|| 
C |-5-----5--5--5--5--5--x--3-----3--3--3--3--3--x--2-----2--2--2--2--2--x--5-----5--5--5--5--5--x-|| 
G#|-5-----5--5--5--5--5--x--4-----4--4--4--4--4--x--2-----2--2--2--2--2--x--5-----5--5--5--5--5--x-|| x 3 
D#|-5-----5--5--5--5--5--x--4-----4--4--4--4--4--x--2-----2--2--2--2--2--x--5-----5--5--5--5--5--x-|| 
A#|------------------------------------------------------------------------------------------------|| 
F |------------------------------------------------------------------------------------------------|| 
+ 
    C#6                     Cm                      A#6/D                   C#6/A# 
F |-5-----5--5--5--5--5--x--2-----2--2--2--2--2--x-------------------------------------------------| 
C |-5-----5--5--5--5--5--x--3-----3--3--3--3--3--x--------------3----------------------------------| 
G#|-5-----5--5--5--5--5--x--4-----4--4--4--4--4--x--------2-h4-----4--0-----5--4--2-p0-/4~---------| 
D#|-5-----5--5--5--5--5--x--4-----4--4--4--4--4--x--2-h4-------------------------------------------| 
A#|------------------------------------------------------------------------------------------------| 
F |------------------------------------------------------------------------------------------------| 
+ 
    C#6/G#                  Cm                      A#6 
F |------------------------------------------------------------------------------------------------| 
C |------------------------------------------------------------------------------------------------| 
G#|------------------------------------------------------------------------------------------------| 
D#|-2-h4-------------------------------------------------------------------------------------------| 
A#|-------------------------2-----------------------0----------------------------------------------| 
F |-3----------------------------------------------------------------------------------------------| 
+ 
    A#6 
F |------------------------------------------------| 
C |-------------3----------------------------------| 
G#|-------2-/4-----4--0-----5--4--2-p0-/4~---------| 
D#|-2-h4-------------------------------------------| 
A#|------------------------------------------------| 
F |------------------------------------------------| 



BRIDGE I: 
Guitar II 
    C#6                     Cm                      A#6                     C#6/G# 
F |------------------------------------------------------------------------------------------------| 
C |------------------------------------------------------------------------------------------------| 
G#|------------------------------------------------------------------------------------------------| 
D#|------------------------------------------------------------------------------------------------| 
A#|-3-----------------------2-----------------------0----------------------------------------------| 
F |-------------------------------------------------------------------------3----------------------| 
+ 
    C#6                     Cm                      A#6/D                   C#6/A# 
F |------------------------------------------------------------------------------------------------| 
C |------------------------------------------------------------------------------------------------| 
G#|------------------------------------------------------------------------------------------------| 
D#|------------------------------------------------------------------------------------------------| 
A#|-3-----------------------2-----------------------4-----------------------0----------------------| 
F |------------------------------------------------------------------------------------------------| 
+ 
    C#6/G#                  Cm                      A#6                     C#6/D# 
F |------------------------------------------------------------------------------------------------| 
C |------------------------------------------------------------------------------------------------| 
G#|------------------------------------------------------------------------------------------------| 
D#|------------------------------------------------------------------------------------------------| 
A#|-------------------------2-----------------------0-----------------------5----------------------| 
F |-3----------------------------------------------------------------------------------------------| 
+ 
    C#6/G#                  Cm                      A#6 
F |------------------------------------------------------------------------------------------------| 
C |------------------------------------------------------------------------------------------------| 
G#|------------------------------------------------------------------------------------------------| 
D#|------------------------------------------------------------------------------------------------| 
A#|-------------------------2-----------------------0----------------------------------------------| 
F |-3----------------------------------------------------------------------------------------------| 
+ 
    A#6 
F |------------------------------------------------| 
C |------------------------------------------------| 
G#|------------------------------------------------| 
D#|------------------------------------------------| 
A#|-0----------------------------------------------| 
F |------------------------------------------------| 



OUTRO: 
Guitars I + II 
    Fm7      D#             A#                      Fm7      D#             A# 
F |-------------------------0-----0-----0--0--0-----------------------------0-----0-----0--0--0----| 
C |-7--10----8-----7--------5-----5-----5--5--5-----7--10----8-----7--------5-----5-----5--5--5----| 
G#|-7--7-----7----(7)-------6-----6-----6--6--6-----7--7-----7-----7--------6-----6-----6--6--6----| 
D#|-7--7-----9----(7)----7--7-----7-----7--7--7-----7--7-----9-----7-----7--7-----7-----7--7--7----| 
A#|------------------------------------------------------------------------------------------------| 
F |------------------------------------------------------------------------------------------------| 
+ 
    Fm7      D#             A#                      Fm7      D#             A# 
F |-------------------------0-----0-----0--0--0-----------------------------0----------------------| 
C |-7--10----8-----7--------5-----5-----5--5--5-----7--10----8-----7--------5----------------------| 
G#|-7--7-----7----(7)-------6-----6-----6--6--6-----7--7-----7-----7--------6----------------------| 
D#|-7--7-----9----(7)----7--7-----7-----7--7--7-----7--7-----9-----7-----7--7----------------------| 
A#|------------------------------------------------------------------------------------------------| 
F |------------------------------------------------------------------------------------------------| 



 
		  

See also:

tabs Deep Purple - Black Night tabs Deep Purple - Soldier Of Fortune tabs Deep Purple - Demon's Eye tabs Ira! - Envelheço na Cidade tabs Deep Purple - Smoke on the Water (correct) tabs Ira! - Tarde Vazia (Acústico)
e-chords

Other versions:

tabs Ariel Pinks Haunted Graffiti - Hardcore Pops Are Fun
auto scroll beats size up size down change color hide chords drawings
tab show chords e-chords YouTube Clip e-chords hide all tabs e-chords go to top tab

share