Architects

Hollow Crown (acoustic)

Architects

tabs

by  JESSGOMES

save to print version add songbook text version e-mail correct tuner
chordsukulelecavacokeyboardtabbassdrumsharmonicaflute Guitar Pro
close

there isn't a video lesson for this song

chords

Hollow Crown (acoustic)

	  		

 
, tab in relation to capo 

Organ/synth chord pattern - these chords last in one form or another throughout the  
whole song. I'll let you figure out timings, it's not hard 

E|---3---3---3---3---3---3---3---3------------------------------------------| 
B|---3---3---3---3---1---3---3---3------------------------------------------| 
G|---0---0---0---0---0---2---0---2------------------------------------------| 
D|---2---0---2---0---2---0---0---0------------------------------------------| 
A|---2---2---2---2---3---0---2---0------------------------------------------| 
E|---0---3---0---3-----------3---2------------------------------------------| 

Repeat lots. 

This next bit during the Chorus can be done two ways. Either: 

E|--10p0----------10p0----------10p0----------------------------------| 
B|-------10p0-8p0------10p0-8p0------10p0-8p0-8/10-7/8----------------| 
G|--------------------------------------------------------------------| 
D|--------------------------------------------------------------------| 
A|--------------------------------------------------------------------| 
E|--------------------------------------------------------------------| x8 

Or (I would do this by tapping the 15s): 

E|--------------------------------------------------------------------| 
B|--15p0-10p0-8p0-15p0-10p0-8p0-15p0-10p0-8p0-8/10-7/8----------------| 
G|--------------------------------------------------------------------| 
D|--------------------------------------------------------------------| 
A|--------------------------------------------------------------------| 
E|--------------------------------------------------------------------| x8 

Both sound pretty accurate, I personally prefer the first way. 

Breakdown-y bit: 

E|--------------------------------------------------------------------| 
B|--------------------------------------------------------------------| 
G|-0-----------0-----------0-----------0-0-0-0-0-0--------------------| 
D|-2-2-2-2-2-2-2-2-2-2-2-2-2-2-2-2-2-2-0-0-0-0-0-0--------------------| 
A|-2-2-2-2-2-2-2-2-2-2-2-2-2-2-2-2-2-2-2-2-2-2-2-2--------------------| 
E|-0-0-0-0-0-0-0-0-0-0-0-0-0-0-0-0-0-0-3-3-3-3-3-3--------------------| 
PM   . . . . .   . . . . .   . . . . . 

Repeat that a couple of times, then without the palm mute when Sam goes on his  
WOOOOOOAAAAAAAA-WOOOOAAHHHHHHH bit. During that you can put a bit of single-note stuff in: 

E|--------------------------------------------------------------------| 
B|-8t------7t---8t------7t---8t------7t---10t----12t-----15t----------| 
G|--------------------------------------------------------------------| 
D|--------------------------------------------------------------------| 
A|--------------------------------------------------------------------| 
E|--------------------------------------------------------------------| 

Then end on open chords: 

E|--3----3----3----3----3--3--3--3--3--3-3-3-3-3-3-3-3--------------------| 
B|--3----3----3----3----3--3--3--3--3--3-3-3-3-3-3-3-3--------------------| 
G|--0----0----0----0----0--0--0--0--0--0-2-2-2-2-2-2-2--------------------| 
D|--2----2----2----0----0--0--0--0--0--0-0-0-0-0-0-0-0--------------------| 
A|--2----2----2----2----2--2--2--2--2--2-0-0-0-0-0-0-0--------------------| 
E|--0----0----0----3----3--3--3--3--3--3-2-2-2-2-2-2-2--------------------| 

And there you have it. 
		  

auto scroll beats size up size down change color hide chords drawings
tab show chords e-chords YouTube Clip e-chords hide all tabs e-chords go to top tab

share