Arbol

home > Arbol

El Fantasma Tab

Arbol

Difficulty: BeginnerBeginner

by kcobain7

tuner correct add songbook print version text version save to e-mail
chordsukulelecavacokeyboardtabbassdrumsharmonicsflute Guitar Pro
chords

El Fantasma

  		RIFF 1 
1:29 en realidad es con una especie de pianito q se sopla, pero aca va para tocarlo con guitarra. 
 
 ||--10-7-8-10----8-7-8---5-7-8---7-5-7---3-5-7---3-5-7---3-5-7---5-7-8--7-8-10--> 
 ||------------------------------------------------------------------------------> 
 ||------------------------------------------------------------------------------> sigue> 
 ||------------------------------------------------------------------------------> 
 ||------------------------------------------------------------------------------> 
 ||------------------------------------------------------------------------------> 
 
     >--8-10-11--10-8-7-8-7----|| 
     >-------------------------|| 
     >-------------------------|| 
     >-------------------------|| 
     >-------------------------|| 
     >-------------------------|| 
 
El RIFF 1 lo repite cuando cambian los acordes y tambien sube un tono y medio (es decir, en vez 
de empezar en 10 traste empieza en el 13 traste y de ahi lo hacen igual) 
 
RIFF 2 
   3:05 esto lo hace mientras cantan un pedazito y despues sigue. 
 ||---------------------------------------------|| 
 ||-------------8-6---8-6---8-6---8-6--4-3-4-3--|| x4 
 ||---------------------------------------------|| 
 ||-8-8-8-8-8-8-----8-----8-----8---------------|| 
 ||---------------------------------------------|| 
 ||---------------------------------------------|| 
 
RIFF 3 
  Cuado terminan de tocar 4 veces el punteo anterior tocan este hasta q termina el tema. 
 ||---------------------------------------------------------------|| 
 ||-----6----6----6----6----6----6----4----4----4----4----4----4--|| 
 ||---7----7----7----5----5----5----3----3----3----3----3----3----|| 
 ||---------------------------------------------------------------|| 
 ||---------------------------------------------------------------|| 
 ||---------------------------------------------------------------|| 

	  

Search Paypal
auto scroll beats size up size down change color hide chords drawings
tab show chords e-chords YouTube Clip e-chords hide all tabs e-chords go to top tab