Antiseen

Weight Of The World

Antiseen

tabs

by  IRONPOWER4EVER

save to print version add songbook text version e-mail correct tuner
chordsukulelecavacokeyboardtabbassdrumsharmonicaflute Guitar Pro
close

there isn't a video lesson for this song

chords

Weight Of The World

	  		
Verse                                    x3 
E------------------------------------------| 
B------------------------------------------| 
G-----------------7--------------------7---| 
D-9-9-9-9-9-9-9-9-7-7--9-9-9-9-9-9-9-9-7-7-| 
A-9-9-9-9-9-9-9-9-5-7--9-9-9-9-9-9-9-9-5-7-| 
E-7-7-7-7-7-7-7-7---5--7-7-7-7-7-7-7-7---5-| 


E-------------|-------------|-------------|-------------| 
B-------------|-------------|-------------|-------------| 
G-9-9-9-9-----|-9-9-9-9-----|-9-9-9-9-----|-9-9-9-9-----| 
D-9-9-9-9-9-7-|-9-9-9-9-9-7-|-9-9-9-9-9-7-|-9-9-9-9-9-7-| 
A-7-7-7-7-9-7-|-7-7-7-7-9-7-|-7-7-7-7-9-7-|-7-7-7-7-9-7-| 
E---------7-5-|---------7-5-|---------7-5-|---------7-5-| 
  

verse 2                                  x3 
E------------------------------------------| 
B------------------------------------------| 
G-----------------7--------------------7---| 
D-9-9-9-9-9-9-9-9-7-7--9-9-9-9-9-9-9-9-7-7-| 
A-9-9-9-9-9-9-9-9-5-7--9-9-9-9-9-9-9-9-5-7-| 
E-7-7-7-7-7-7-7-7---5--7-7-7-7-7-7-7-7---5-| 


E-------------|-------------|-------------|-------------| 
B-------------|-------------|-------------|-------------| 
G-9-9-9-9-----|-9-9-9-9-----|-9-9-9-9-----|-9-9-9-9-----| 
D-9-9-9-9-9-7-|-9-9-9-9-9-7-|-9-9-9-9-9-7-|-9-9-9-9-9-7-| 
A-7-7-7-7-9-7-|-7-7-7-7-9-7-|-7-7-7-7-9-7-|-7-7-7-7-9-7-| 
E---------7-5-|---------7-5-|---------7-5-|---------7-5-| 


Outro 
E----------------------------------------------------------------------------------------------| 
B----------------------------------------------------------------------------------------------| 
G-----------------7--------------------7-----------------------7-------7-------7---------------| 
D-9-9-9-9-9-9-9-9-7-7--9-9-9-9-9-9-9-9-7-7-9-9-9-9-9-9-9-9-----7-7-8-9-7-7-8-9-7-7-8------9----| 
A-9-9-9-9-9-9-9-9-5-7--9-9-9-9-9-9-9-9-5-7-9-9-9-9-9-9-9-9-----5-7-8-9-5-7-8-9-5-7-8------9----| 
E-7-7-7-7-7-7-7-7---5--7-7-7-7-7-7-7-7---5-7-7-7-7-7-7-7-7-------5-6-7---5-6-7---5-6------7----| 
 
		  

See also:

tabs Deep Purple - Black Night tabs Deep Purple - Soldier Of Fortune tabs Deep Purple - Demon's Eye tabs Ira! - Envelheço na Cidade tabs Deep Purple - Smoke on the Water (correct) tabs Ira! - Tarde Vazia (Acústico)
e-chords

Other versions:

tabs Evanescence - Weight of the world tabs Antiseen - Weight Of The World
auto scroll beats size up size down change color hide chords drawings
tab show chords e-chords YouTube Clip e-chords hide all tabs e-chords go to top tab

share