Antiseen

Watch The Bastard Fry

Antiseen

tabs

by  ANDRSOUZA

save to print version add songbook text version e-mail correct tuner
chordsukulelecavacokeyboardtabbassdrumsharmonicaflute Guitar Pro
close

there isn't a video lesson for this song

chords

Watch The Bastard Fry

	  		Verse 
E----------------------------------------| 
B----------------------------------------| 
G-----------7-7-7--7--9-9-9--9-----------| 
D-----------7-7-7--7--9-9-9--9--7-7--7-7-| 
A-9-9-9--9--5-5-5--5--7-7-7--7--7-7--7-7-| 
E-7-7-7--7----------------------5-5--5-5-| 


Chorus 
E-------------------| 
B-------------------| 
G-9--7--8-----------| 
D-9--7--9--7-7--7-7-| 
A-7--5--7--7-7--7-7-| 
E----------5-5--5-5-| 


Just listen for the order, ain't nothing to it 
		  

See also:

tabs Deep Purple - Black Night tabs Deep Purple - Soldier Of Fortune tabs Deep Purple - Demon's Eye tabs Ira! - Envelheço na Cidade tabs Deep Purple - Smoke on the Water (correct) tabs Ira! - Tarde Vazia (Acústico)
e-chords

Other versions:

tabs Antiseen - Watch The Bastard Fry
auto scroll beats size up size down change color hide chords drawings
tab show chords e-chords YouTube Clip e-chords hide all tabs e-chords go to top tab

share