Antiseen

Stormtrooper

Antiseen

tabs

by  UBIRBOMFIM

save to print version add songbook text version e-mail correct tuner
chordsukulelecavacokeyboardtabbassdrumsharmonicaflute Guitar Pro
close

there isn't a video lesson for this song

chords

Stormtrooper

	  		
Verse 
E------------------------------------------------------| 
B------------------------------------------------------| 
G-4-4-4-4-4-4-4-4-4--7-7-7-7--4-4-4-4-4-4-4-4-4--7-----| 
D-4-4-4-4-4-4-4-4-4--7-7-7-7--4-4-4-4-4-4-4-4-4--7--7--| 
A-2-2-2-2-2-2-2-2-2--5-5-5-5--2-2-2-2-2-2-2-2-2--5--7--| 
E---------------------------------------------------5--| 


Chorus 
E------------------------------------| 
B------------------------------------| 
G-4---7-7--4---7-7--4---7-7--9-9-9-9-| 
D-4---7-7--4---7-7--4---7-7--9-9-9-9-| 
A-2---5-5--2---5-5--2---5-5--7-7-7-7-| 
E------------------------------------| 


Order:                                 End On: 
Verse   x4                             E-------| 
Chorus  x2                             B-------| 
Verse   x3                             G--4----| 
Chorus  x2                             D--4----| 
Verse   x3                             A--2----| 
Chorus  x4                             E-------| 
		  

See also:

tabs Deep Purple - Black Night tabs Deep Purple - Soldier Of Fortune tabs Deep Purple - Demon's Eye tabs Ira! - Envelheço na Cidade tabs Deep Purple - Smoke on the Water (correct) tabs Ira! - Tarde Vazia (Acústico)
e-chords

Other versions:

tabs Antiseen - Stormtrooper
auto scroll beats size up size down change color hide chords drawings
tab show chords e-chords YouTube Clip e-chords hide all tabs e-chords go to top tab

share