Antiseen

Slice You Open

Antiseen

tabs

by  TARIKIKE

save to print version add songbook text version e-mail correct tuner
chordsukulelecavacokeyboardtabbassdrumsharmonicaflute Guitar Pro
close

there isn't a video lesson for this song

chords

Slice You Open

	  		Chorus  
E----------------------------------| 
B----------------------------------| 
G-7-7-7-7-7-7-7-7------------------| 
D-7-7-7-7-7-7-7-7--4-4-4-4-4-4-4-4-| 
A-5-5-5-5-5-5-5-5--4-4-4-4-4-4-4-4-| 
E------------------2-2-2-2-2-2-2-2-| 


Verse 
E---------------------------------| 
B---------------------------------| 
G-9-9-9-9-4-4-4-4-6-6-6-6-2-2-2-2-| 
D-9-9-9-9-4-4-4-4-6-6-6-6-2-2-2-2-| 
A-7-7-7-7-2-2-2-2-4-4-4-4-0-0-0-0-| 
E---------------------------------| 


The Chorus is played on the intro as well, listen for order 
		  

auto scroll beats size up size down change color hide chords drawings
tab show chords e-chords YouTube Clip e-chords hide all tabs e-chords go to top tab

share