Antiseen

Old Man Hit The Road

Antiseen

tabs

by  PAULANTUNES

save to print version add songbook text version e-mail correct tuner
chordsukulelecavacokeyboardtabbassdrumsharmonicaflute Guitar Pro
close

there isn't a video lesson for this song

chords

Old Man Hit The Road

	  		Verse 
E------------------------| 
B------------------------| 
G------------------7--5--| 
D-7--7-7-7--7--7-7-7--5--| 
A-7--7-7-7--7--7-7-5--3--| 
E-5--5-5-5--5--5-5-------| 

Chorus 
E---------------------------------| 
B---------------------------------| 
G-----------------2-2-2-2-2-2-2-2-| 
D-5-5-5-5-5-5-5-5-2-2-2-2-2-2-2-2-| 
A-5-5-5-5-5-5-5-5-0-0-0-0-0-0-0-0-| 
E-3-3-3-3-3-3-3-3-----------------| 


Listen for order, super simple to play 
		  

See also:

tabs Deep Purple - Black Night tabs Deep Purple - Soldier Of Fortune tabs Deep Purple - Demon's Eye tabs Ira! - Envelheço na Cidade tabs Deep Purple - Smoke on the Water (correct) tabs Ira! - Tarde Vazia (Acústico)
e-chords

Other versions:

tabs Antiseen - Old Man Hit The Road
auto scroll beats size up size down change color hide chords drawings
tab show chords e-chords YouTube Clip e-chords hide all tabs e-chords go to top tab

share