Antiseen

My God Can Beat Up Your God

Antiseen

tabs

by  AMAN_CLAUDINO

save to print version add songbook text version e-mail correct tuner
chordsukulelecavacokeyboardtabbassdrumsharmonicaflute Guitar Pro
close

there isn't a video lesson for this song

chords

My God Can Beat Up Your God

	  		Verse        
E-------------| 
B-------------| 
G-7-7-7-7-5---| 
D-7-7-7-7-5-5-| 
A-5-5-5-5-3-5-| 
E-----------3-| 

Chorus 
E---------------------------------| 
B---------------------------------| 
G-2-2-2-2-4-4-4-4---------2-2-2-2-| 
D-2-2-2-2-4-4-4-4-5-5-5-5-2-2-2-2-| 
A-0-0-0-0-2-2-2-2-5-5-5-5-0-0-0-0-| 
E-----------------3-3-3-3---------| 

Just Listen for the order 
		  

auto scroll beats size up size down change color hide chords drawings
tab show chords e-chords YouTube Clip e-chords hide all tabs e-chords go to top tab

share