Antiseen

Last Days On Earth

Antiseen

tabs

by  PAULANTUNES

save to print version add songbook text version e-mail correct tuner
chordsukulelecavacokeyboardtabbassdrumsharmonicaflute Guitar Pro
close

there isn't a video lesson for this song

chords

Last Days On Earth

	  		Verse 
E----------------| 
B----------------| 
G----------------| 
D-9-7-9--9-9-9-9-| 
A-9-7-9--9-9-9-9-| 
E-7-5-7--7-7-7-7-| 

PreChorus 
E---------------------------| 
B---------------------------| 
G----9-----9-----9----------| 
D-9--9--9--9--9--9--9-9-9-9-| 
A-9--7--9--7--9--7--9-9-9-9-| 
E-7-----7-----7-----7-7-7-7-| 

Chorus 
E----------------------| 
B----------------------| 
G----------------7-7-7-| 
D-9-9--7-7--9-9--7-7-7-| 
A-9-9--7-7--9-9--5-5-5-| 
E-7-7--5-5--7-7--------| 


Just listen for the order 
		  

See also:

tabs Deep Purple - Black Night tabs Deep Purple - Soldier Of Fortune tabs Deep Purple - Demon's Eye tabs Ira! - Envelheço na Cidade tabs Deep Purple - Smoke on the Water (correct) tabs Ira! - Tarde Vazia (Acústico)
e-chords

Other versions:

tabs Antiseen - Last Days On Earth
auto scroll beats size up size down change color hide chords drawings
tab show chords e-chords YouTube Clip e-chords hide all tabs e-chords go to top tab

share