Antiseen

Ive Aged 20 Years In 5

Antiseen

tabs

by  ALEFFEDERICO

save to print version add songbook text version e-mail correct tuner
chordsukulelecavacokeyboardtabbassdrumsharmonicaflute Guitar Pro
close

there isn't a video lesson for this song

chords

Ive Aged 20 Years In 5

	  		Intro 
E---------------------------------| 
B---------------------------------| 
G---------------------------------| 
D-5-5-5-5-5-5-5-5-5-5-5-5-5-5-5-5-| 
A-5-5-5-5-5-5-5-5-5-5-5-5-5-5-5-5-| 
E-3-3-3-3-3-3-3-3-3-3-3-3-3-3-3-3-| 


Main Part                       x2   
E---------------------------------|---------------------------------------------------------| 
B---------------------------------|---------------------------------------------------------| 
G---------------------------------|-5-5-5-5-5-5-5-5---------5-5-5-5---------7-7-7-7---------| 
D-5-5-5-5-5-5-5-5-5-5-5-5-5-5-5-5-|-5-5-5-5-5-5-5-5-5-5-5-5-5-5-5-5-5-5-5-5-7-7-7-7-5-5-5-5-| 
A-5-5-5-5-5-5-5-5-5-5-5-5-5-5-5-5-|-3-3-3-3-3-3-3-3-5-5-5-5-3-3-3-3-5-5-5-5-5-5-5-5-5-5-5-5-| 
E-3-3-3-3-3-3-3-3-3-3-3-3-3-3-3-3-|-----------------3-3-3-3---------3-3-3-3---------3-3-3-3-| 


Outro 
E---------------------------------| 
B---------------------------------| 
G---------7-7-7-7-----------------| 
D-5-5-5-5-7-7-7-7-5-5-5-5-5-5-5-5-| 
A-5-5-5-5-5-5-5-5-5-5-5-5-5-5-5-5-| 
E-3-3-3-3---------3-3-3-3-3-3-3-3-| 


Order is : 
Intro       x1 
Main Part   x5 
Outro       x1 
		  

See also:

tabs Deep Purple - Black Night tabs Deep Purple - Soldier Of Fortune tabs Deep Purple - Demon's Eye tabs Ira! - Envelheço na Cidade tabs Deep Purple - Smoke on the Water (correct) tabs Ira! - Tarde Vazia (Acústico)
e-chords

Other versions:

tabs Antiseen - Ive Aged 20 Years In 5
auto scroll beats size up size down change color hide chords drawings
tab show chords e-chords YouTube Clip e-chords hide all tabs e-chords go to top tab

share