Antiseen

Hate For Power

Antiseen

tabs

by  CARLLUZ

save to print version add songbook text version e-mail correct tuner
chordsukulelecavacokeyboardtabbassdrumsharmonicaflute Guitar Pro
close

there isn't a video lesson for this song

chords

Hate For Power

	  		Verse 
E---------------------| 
B---------------------| 
G-4--4-4--4--4-4--7-9-| 
D-4--4-4--4--4-4--7-9-| 
A-2--2-2--2--2-2--5-7-| 
E---------------------| 


Chorus 
E------------------------------------| 
B------------------------------------| 
G-7-7-7-7-7-7-7-7--9-9-9-9-9-9-9-9-9-| 
D-7-7-7-7-7-7-7-7--9-9-9-9-9-9-9-9-9-| 
A-5-5-5-5-5-5-5-5--7-7-7-7-7-7-7-7-7-| 
E------------------------------------| 

Listen for order 
		  

See also:

tabs Deep Purple - Black Night tabs Deep Purple - Soldier Of Fortune tabs Deep Purple - Demon's Eye tabs Ira! - Envelheço na Cidade tabs Deep Purple - Smoke on the Water (correct) tabs Ira! - Tarde Vazia (Acústico)
e-chords

Other versions:

tabs Antiseen - Hate For Power
auto scroll beats size up size down change color hide chords drawings
tab show chords e-chords YouTube Clip e-chords hide all tabs e-chords go to top tab

share