Antiseen

Funk U

Antiseen

tabs

by  TARIKIKE

save to print version add songbook text version e-mail correct tuner
chordsukulelecavacokeyboardtabbassdrumsharmonicaflute Guitar Pro
close

there isn't a video lesson for this song

chords

Funk U

	  		
Intro 
E----------------------------------------------------| 
B----------------------------------------------------| 
G----------------------------------------------------| 
D--3-------------------------------------------------| 
A--3-(Hold)------------------------------------------| 
E--1-------------------------------------------------| 


Main Riff/Verse 
E----------------------------------------------------| 
B----------------------------------------------------| 
G----------------------------------------------------| 
D-3/5--5-5-5---3/5--5-5-5---3/5--5-5-5---3/5--5-5-5--| 
A-3/5--5-5-5---3/5--5-5-5---3/5--5-5-5---3/5--5-5-5--| 
E-1/3--3-3-3---1/3--3-3-3---1/3--3-3-3---1/3--3-3-3--| 


Chorus 
E---------------------------------------------|---------------------------------------------| 
B---------------------------------------------|---------------------------------------------| 
G-3-3-3-3--5-5-5-5----------------------------|-3-3-3-3--5-5-5-5----------------------------| 
D-3-3-3-3--5-5-5-5---3/5--5-5-5---3/5--5-5-5--|-3-3-3-3--5-5-5-5---3/5--5-5-5---3/5--5-5-5--| 
A-1-1-1-1--3-3-3-3---3/5--5-5-5---3/5--5-5-5--|-1-1-1-1--3-3-3-3---3/5--5-5-5---3/5--5-5-5--| 
E--------------------1/3--3-3-3---1/3--3-3-3--|--------------------1/3--3-3-3---1/3--3-3-3--| 


Outro Bridge (this is at 2:10 where there's the drum fill between each part) 
E---------------------------------------------------------------------------------------------------------| 
B---------------------------------------------------------------------------------------------------------| 
G---------------------------------------------------------------------------------------------------------| 
D-3/5----------3/5----------3/5----------3/5----------3/5----------3/5----------3/5----------3/5----------| 
A-3/5----------3/5----------3/5----------3/5----------3/5----------3/5----------3/5----------3/5----------| 
E-1/3----------1/3----------1/3----------1/3----------1/3----------1/3----------1/3----------1/3----------| 


Classic Tune, nothing to it- just listen for the order 
		  

See also:

tabs Deep Purple - Black Night tabs Deep Purple - Soldier Of Fortune tabs Deep Purple - Demon's Eye tabs Ira! - Envelheço na Cidade tabs Deep Purple - Smoke on the Water (correct) tabs Ira! - Tarde Vazia (Acústico)
e-chords

Other versions:

tabs Antiseen - Funk U
auto scroll beats size up size down change color hide chords drawings
tab show chords e-chords YouTube Clip e-chords hide all tabs e-chords go to top tab

share