Antiseen

Death Train Coming

Antiseen

tabs

by  VICTBORGES

save to print version add songbook text version e-mail correct tuner
chordsukulelecavacokeyboardtabbassdrumsharmonicaflute Guitar Pro
close

there isn't a video lesson for this song

chords

Death Train Coming

	  		Intro           (Strum till drums kick in) 
E-----------------------------------| 
B-----------------------------------| 
G-6-------------6666666666666666666-| 
D-6-------------6666666666666666666-| 
A-4-------------4444444444444444444-| 
E-----------------------------------| 

Main Riff 
E------------------------------| 
B------------------------------| 
G-6-6-6-6--9-9-9-9---------6-4-| 
D-6-6-6-6--9-9-9-9-9-9-9-9-6-4-| 
A-4-4-4-4--7-7-7-7-9-9-9-9-4-2-| 
E------------------7-7-7-7-----| 

Second Riff 
E----------------------------| 
B----------------------------| 
G-6-6-6--9-9-9---------6-9---| 
D-6-6-6--9-9-9--9-9-9--6-9-9-| 
A-4-4-4--7-7-7--9-9-9--4-7-9-| 
E---------------7-7-7------7-| 

Just Listen for the order, Super simple to follow 
		  

See also:

tabs Deep Purple - Black Night tabs Deep Purple - Soldier Of Fortune tabs Deep Purple - Demon's Eye tabs Ira! - Envelheço na Cidade tabs Deep Purple - Smoke on the Water (correct) tabs Ira! - Tarde Vazia (Acústico)
e-chords

Other versions:

tabs Antiseen - Death Train Coming
auto scroll beats size up size down change color hide chords drawings
tab show chords e-chords YouTube Clip e-chords hide all tabs e-chords go to top tab

share