Antiseen

Curses

Antiseen

tabs

by  IRONPOWER4EVER

save to print version add songbook text version e-mail correct tuner
chordsukulelecavacokeyboardtabbassdrumsharmonicaflute Guitar Pro
close

there isn't a video lesson for this song

chords

Curses

	  		
Intro 
E------------------------|------------------------|------------------------|------------------------| 
B------------------------|------------------------|------------------------|------------------------| 
G-----7-7-7--------------|-----7-7-7--------------|-----7-7-7--------------|-----7-7-7--------------| 
D-9-9-7-7-7-7-7--7--9-9--|-9-9-7-7-7-7-7--7--9-9--|-9-9-7-7-7-7-7--7--9-9--|-9-9-7-7-7-7-7--7--9-9--| 
A-9-9-5-5-5-7-7--7--9-9--|-9-9-5-5-5-7-7--7--9-9--|-9-9-5-5-5-7-7--7--9-9--|-9-9-5-5-5-7-7--7--9-9--| 
E-7-7-------5-5--5--7-7--|-7-7-------5-5--5--7-7--|-7-7-------5-5--5--7-7--|-7-7-------5-5--5--7-7--| 


Verse                                               (**Vocals come in) 
E------------------------|------------------------|------------------------|------------------------| 
B------------------------|------------------------|------------------------|------------------------| 
G-----7-7-7--------------|-----7-7-7--------------|-----7-7-7--------------|-----7-7-7--------------| 
D-9-9-7-7-7-7-7--7--9-9--|-9-9-7-7-7-7-7--7--9-9--|-9-9-7-7-7-7-7--7--9-9--|-9-9-7-7-7-7-7--7--9-9--| 
A-9-9-5-5-5-7-7--7--9-9--|-9-9-5-5-5-7-7--7--9-9--|-9-9-5-5-5-7-7--7--9-9--|-9-9-5-5-5-7-7--7--9-9--| 
E-7-7-------5-5--5--7-7--|-7-7-------5-5--5--7-7--|-7-7-------5-5--5--7-7--|-7-7-------5-5--5--7-7--| 


Chorus ("What kinda Witch are you supposed to be...") 
E---------------------------|---------------------------| 
B---------------------------|---------------------------| 
G---------------------------|---------------------------| 
D-5-5-5-5--7-7-7-7--9-7-9---|-5-5-5-5--7-7-7-7--9-7-9---| 
A-5-5-5-5--7-7-7-7--9-7-9---|-5-5-5-5--7-7-7-7--9-7-9---| 
E-3-3-3-3--5-5-5-5--7-5-7---|-3-3-3-3--5-5-5-5--7-5-7---| 


verse 2 
E----------------------------------|----------------------------------| 
B----------------------------------|----------------------------------| 
G----------------------------------|----------------------------------| 
D-9-9-9-9-9-9-9-9-9-9-9-9--5---7---|-9-9-9-9-9-9-9-9-9-9-9-9--5---7---| 
A-9-9-9-9-9-9-9-9-9-9-9-9--5---7---|-9-9-9-9-9-9-9-9-9-9-9-9--5---7---| 
E-7-7-7-7-7-7-7-7-7-7-7-7--3---5---|-7-7-7-7-7-7-7-7-7-7-7-7--3---5---| 

E----------------------------------|----------------------------------| 
B----------------------------------|----------------------------------| 
G----------------------------------|----------------------------------| 
D-9-9-9-9-9-9-9-9-9-9-9-9--5---7---|-9-9-9-9-9-9-9-9-9-9-9-9--5---7---| 
A-9-9-9-9-9-9-9-9-9-9-9-9--5---7---|-9-9-9-9-9-9-9-9-9-9-9-9--5---7---| 
E-7-7-7-7-7-7-7-7-7-7-7-7--3---5---|-7-7-7-7-7-7-7-7-7-7-7-7--3---5---| 

E------------------------|------------------------| 
B------------------------|------------------------| 
G-----7-7-7--------------|-----7-7-7--------------| 
D-9-9-7-7-7-7-7--7--9-9--|-9-9-7-7-7-7-7--7--9-9--| 
A-9-9-5-5-5-7-7--7--9-9--|-9-9-5-5-5-7-7--7--9-9--| 
E-7-7-------5-5--5--7-7--|-7-7-------5-5--5--7-7--| 


Chorus  
E---------------------------|---------------------------| 
B---------------------------|---------------------------| 
G---------------------------|---------------------------| 
D-5-5-5-5--7-7-7-7--9-7-9---|-5-5-5-5--7-7-7-7--9-7-9---| 
A-5-5-5-5--7-7-7-7--9-7-9---|-5-5-5-5--7-7-7-7--9-7-9---| 
E-3-3-3-3--5-5-5-5--7-5-7---|-3-3-3-3--5-5-5-5--7-5-7---| 


verse 3 
E----------------------------------|----------------------------------| 
B----------------------------------|----------------------------------| 
G----------------------------------|----------------------------------| 
D-9-9-9-9-9-9-9-9-9-9-9-9--5---7---|-9-9-9-9-9-9-9-9-9-9-9-9--5---7---| 
A-9-9-9-9-9-9-9-9-9-9-9-9--5---7---|-9-9-9-9-9-9-9-9-9-9-9-9--5---7---| 
E-7-7-7-7-7-7-7-7-7-7-7-7--3---5---|-7-7-7-7-7-7-7-7-7-7-7-7--3---5---| 

E----------------------------------|----------------------------------| 
B----------------------------------|----------------------------------| 
G----------------------------------|----------------------------------| 
D-9-9-9-9-9-9-9-9-9-9-9-9--5---7---|-9-9-9-9-9-9-9-9-9-9-9-9--5---7---| 
A-9-9-9-9-9-9-9-9-9-9-9-9--5---7---|-9-9-9-9-9-9-9-9-9-9-9-9--5---7---| 
E-7-7-7-7-7-7-7-7-7-7-7-7--3---5---|-7-7-7-7-7-7-7-7-7-7-7-7--3---5---| 

E------------------------|------------------------|------------------------|------------------------| 
B------------------------|------------------------|------------------------|------------------------| 
G-----7-7-7--------------|-----7-7-7--------------|-----7-7-7--------------|-----7-7-7--------------| 
D-9-9-7-7-7-7-7--7--9-9--|-9-9-7-7-7-7-7--7--9-9--|-9-9-7-7-7-7-7--7--9-9--|-9-9-7-7-7-7-7--7--9-9--| 
A-9-9-5-5-5-7-7--7--9-9--|-9-9-5-5-5-7-7--7--9-9--|-9-9-5-5-5-7-7--7--9-9--|-9-9-5-5-5-7-7--7--9-9--| 
E-7-7-------5-5--5--7-7--|-7-7-------5-5--5--7-7--|-7-7-------5-5--5--7-7--|-7-7-------5-5--5--7-7--| 


Chorus  
E---------------------------|---------------------------|-----------------| 
B---------------------------|---------------------------|-----------------| 
G---------------------------|---------------------------|-----------------| 
D-5-5-5-5--7-7-7-7--9-7-9---|-5-5-5-5--7-7-7-7--9-7-9---|-9-7-9---9-9-9-9-| 
A-5-5-5-5--7-7-7-7--9-7-9---|-5-5-5-5--7-7-7-7--9-7-9---|-9-7-9---9-9-9-9-| 
E-3-3-3-3--5-5-5-5--7-5-7---|-3-3-3-3--5-5-5-5--7-5-7---|-7-5-7---7-7-7-7-| 



That's the whole song, in order too 
		  

See also:

tabs Deep Purple - Black Night tabs Deep Purple - Soldier Of Fortune tabs Deep Purple - Demon's Eye tabs Ira! - Envelheço na Cidade tabs Deep Purple - Smoke on the Water (correct) tabs Ira! - Tarde Vazia (Acústico)
e-chords

Other versions:

tabs Antiseen - Curses
auto scroll beats size up size down change color hide chords drawings
tab show chords e-chords YouTube Clip e-chords hide all tabs e-chords go to top tab

share