Antiseen

Chainsaw

Antiseen

tabs

by  UBIRBOMFIM

save to print version add songbook text version e-mail correct tuner
chordsukulelecavacokeyboardtabbassdrumsharmonicaflute Guitar Pro
close

there isn't a video lesson for this song

chords

Chainsaw

	  		
Intro 
E-------------------------------------|-------------------------------------| 
B-------------------------------------|-------------------------------------| 
G---------------------------8/9-9-9-9-|---------------------------8/9-9-9-9-| 
D-7-7-7-7--4-4-4-4--9-9-9-9-8/9-9-9-9-|-7-7-7-7--4-4-4-4--9-9-9-9-8/9-9-9-9-| 
A-7-7-7-7--4-4-4-4--9-9-9-9-6/7-7-7-7-|-7-7-7-7--4-4-4-4--9-9-9-9-6/7-7-7-7-| 
E-5-5-5-5--2-2-2-2--7-7-7-7-----------|-5-5-5-5--2-2-2-2--7-7-7-7-----------| 


Verse 
E----------------------------------------------------------------------------| 
B----------------------------------------------------------------------------| 
G----------------------------------------------8/9-9-9-9-----------8/9-9-9-9-| 
D-7-7-7-7--4-4-4-4--7-7-7-7--4-4-4-4--9-9-9-9--8/9-9-9-9--9-9-9-9--8/9-9-9-9-| 
A-7-7-7-7--4-4-4-4--7-7-7-7--4-4-4-4--9-9-9-9--6/7-7-7-7--9-9-9-9--6/7-7-7-7-| 
E-5-5-5-5--2-2-2-2--5-5-5-5--2-2-2-2--7-7-7-7-------------7-7-7-7------------| 


E----------------------------------------------------------------------------|------------------| 
B----------------------------------------------------------------------------|------------------| 
G----------------------------------------------8/9-9-9-9-----------8/9-9-9-9-|-11111111-9-9-9-9-| 
D-7-7-7-7--4-4-4-4--7-7-7-7--4-4-4-4--9-9-9-9--8/9-9-9-9--9-9-9-9--8/9-9-9-9-|-11111111-9-9-9-9-| 
A-7-7-7-7--4-4-4-4--7-7-7-7--4-4-4-4--9-9-9-9--6/7-7-7-7--9-9-9-9--6/7-7-7-7-|-9-9-9-9--7-7-7-7-| 
E-5-5-5-5--2-2-2-2--5-5-5-5--2-2-2-2--7-7-7-7-------------7-7-7-7------------|------------------| 


Chorus (Same as the Verse) 
E----------------------------------------------------------------------------| 
B----------------------------------------------------------------------------| 
G----------------------------------------------8/9-9-9-9-----------8/9-9-9-9-| 
D-7-7-7-7--4-4-4-4--7-7-7-7--4-4-4-4--9-9-9-9--8/9-9-9-9--9-9-9-9--8/9-9-9-9-| 
A-7-7-7-7--4-4-4-4--7-7-7-7--4-4-4-4--9-9-9-9--6/7-7-7-7--9-9-9-9--6/7-7-7-7-| 
E-5-5-5-5--2-2-2-2--5-5-5-5--2-2-2-2--7-7-7-7-------------7-7-7-7------------| 


E----------------------------------------------------------------------------|------------------| 
B----------------------------------------------------------------------------|------------------| 
G----------------------------------------------8/9-9-9-9-----------8/9-9-9-9-|-11111111-9-9-9-9-| 
D-7-7-7-7--4-4-4-4--7-7-7-7--4-4-4-4--9-9-9-9--8/9-9-9-9--9-9-9-9--8/9-9-9-9-|-11111111-9-9-9-9-| 
A-7-7-7-7--4-4-4-4--7-7-7-7--4-4-4-4--9-9-9-9--6/7-7-7-7--9-9-9-9--6/7-7-7-7-|-9-9-9-9--7-7-7-7-| 
E-5-5-5-5--2-2-2-2--5-5-5-5--2-2-2-2--7-7-7-7-------------7-7-7-7------------|------------------| 


Bridge 
E-----------------------------------------------------------------------| 
B-----------------------------------------------------------------------| 
G-9-9-9-9-9-9-9-9-9-------------------9-9-9-9-9-9-9-9--1111111111111111-| 
D-9-9-9-9-9-9-9-9-9--7-7-7-7-7-7-7-7--9-9-9-9-9-9-9-9--1111111111111111-| 
A-7-7-7-7-7-7-7-7-7--7-7-7-7-7-7-7-7--7-7-7-7-7-7-7-7--9-9-9-9-9-9-9-9--| 
E--------------------5-5-5-5-5-5-5-5------------------------------------| 


Chorus (Same as the Verse) 
E----------------------------------------------------------------------------| 
B----------------------------------------------------------------------------| 
G----------------------------------------------8/9-9-9-9-----------8/9-9-9-9-| 
D-7-7-7-7--4-4-4-4--7-7-7-7--4-4-4-4--9-9-9-9--8/9-9-9-9--9-9-9-9--8/9-9-9-9-| 
A-7-7-7-7--4-4-4-4--7-7-7-7--4-4-4-4--9-9-9-9--6/7-7-7-7--9-9-9-9--6/7-7-7-7-| 
E-5-5-5-5--2-2-2-2--5-5-5-5--2-2-2-2--7-7-7-7-------------7-7-7-7------------| 


E----------------------------------------------------------------------------|------------------| 
B----------------------------------------------------------------------------|------------------| 
G----------------------------------------------8/9-9-9-9-----------8/9-9-9-9-|-11111111-9-9-9-9-| 
D-7-7-7-7--4-4-4-4--7-7-7-7--4-4-4-4--9-9-9-9--8/9-9-9-9--9-9-9-9--8/9-9-9-9-|-11111111-9-9-9-9-| 
A-7-7-7-7--4-4-4-4--7-7-7-7--4-4-4-4--9-9-9-9--6/7-7-7-7--9-9-9-9--6/7-7-7-7-|-9-9-9-9--7-7-7-7-| 
E-5-5-5-5--2-2-2-2--5-5-5-5--2-2-2-2--7-7-7-7-------------7-7-7-7------------|------------------| 


Outro 
E-------------------------------------------------------------------------| 
B-------------------------------------------------------------------------| 
G-------------------------------------------------------------------------| 
D-7-7-7-7--4-4-4-4--7-7-7-7--4-4-4-4--7-7-7-7--4-4-4-4--7-----------------| 
A-7-7-7-7--4-4-4-4--7-7-7-7--4-4-4-4--7-7-7-7--4-4-4-4--7-----------------| 
E-5-5-5-5--2-2-2-2--5-5-5-5--2-2-2-2--5-5-5-5--2-2-2-2--5-----------------| 


That's the whole tune, in order too. 
		  

See also:

tabs Deep Purple - Black Night tabs Deep Purple - Soldier Of Fortune tabs Deep Purple - Demon's Eye tabs Ira! - Envelheço na Cidade tabs Deep Purple - Smoke on the Water (correct) tabs Ira! - Tarde Vazia (Acústico)
e-chords

Other versions:

tabs Antiseen - Chainsaw tabs Wasp - Chainsaw Charlie
auto scroll beats size up size down change color hide chords drawings
tab show chords e-chords YouTube Clip e-chords hide all tabs e-chords go to top tab

share