Anthony Phillips

Um Aargh

Anthony Phillips

tabs

by  VICTBORGES

save to print version add songbook text version e-mail correct tuner
chordsukulelecavacokeyboardtabbassdrumsharmonicaflute Guitar Pro
close

there isn't a video lesson for this song

chords

Um Aargh

	  		2:36 
e|-------------------------------------------| 
B|--------------------------------15-15~~~~--| 
G|---4~~~~/-9-9----11/12-12/16-16------------| 
D|-------------------------------------------| 
A|-------------------------------------------| 
E|-------------------------------------------| 

e|------------17~~~~--15---14----------------| 
B|---------15-----------------15-------------| 
G|---14h16-----------------------16~~~~------| 
D|-------------------------------------------| 
A|-------------------------------------------| 
E|-------------------------------------------| 

e|------------------------------------------14-15-17-14----------| 
B|---------------15~~~~--17-17b19~~---15-17-------------15~~~~---| 
G|---------------------------------------------------------------| 
D|---------14h16-------------------------------------------------| 
A|---14h17-------------------------------------------------------| 
E|---------------------------------------------------------------| 

e|--------------------------------------------| 
B|---15b17r15--13p12h13h15--------------------| 
G|-------------------------12~~~~\-5b7r5------| 
D|--------------------------------------------| 
A|--------------------------------------------| 
E|--------------------------------------------| 

e|--------------------------------------------| 
B|--------------------------------------------| 
G|---4/5/7/9~~\4~~~~---4b5r5--2/4/5/7/9\------| 
D|--------------------------------------------| 
A|--------------------------------------------| 
E|--------------------------------------------| 

e|--------------------------------11-12-12b14~~12~~~~--| 
B|------------------4--7--10--12-----------------------| 
G|---4/5/7/9\7\5-4-------------------------------------| 
D|-----------------------------------------------------| 
A|-----------------------------------------------------| 
E|-----------------------------------------------------| 

************************************ 
             
| h   Hammer-on 
| p   Pull-off 
| r   Release 
| b   Bend 
| /   Slide up 
| \   Slide down 
| ~   Vibrato 

************************************ 
		  

See also:

tabs The Beatles - Drive My Car tabs The Smiths - Heaven Knows I'm Miserable Now tabs Eric Clapton - Hey, Hey tabs Coldplay - Yellow tabs Queen - We will rock you tabs Dire Straits - Sultans of swing (completa)
e-chords

Other versions:

tabs Anthony Phillips - Um Aargh
auto scroll beats size up size down change color hide chords drawings
tab show chords e-chords YouTube Clip e-chords hide all tabs e-chords go to top tab

share