Anthony Phillips

God If I Saw Her Now

Anthony Phillips

tabs

by  JOV-CORREA

save to print version add songbook text version e-mail correct tuner
chordsukulelecavacokeyboardtabbassdrumsharmonicaflute Guitar Pro
close

there isn't a video lesson for this song

chords

God If I Saw Her Now

	  		


Intro:  

e|-2--------2---|-2--------2---|-2--------2---|-0-------0---| 
B|------3-------|------3-------|------3-------|-----3-------| 
G|----2-------2-|----2-------2-|----0-------0-|---0-------0-| 
D|-0------0-----|-0------0-----|--------0-----|-------2-----| 
A|--------------|--------------|-2------------|-3-----------| 
E|--------------|--------------|--------------|-------------| 

e|-2--------2---|-2--------2---|-2--------2---|-0-------0---| 
B|------3-------|------3-------|------3-------|-----3-------| 
G|----2-------2-|----2-------2-|----0-------0-|---0-------0-| 
D|-0------0-----|-0------0-----|--------0-----|-------2-----| 
A|--------------|--------------|-2------------|-3-----------| 
E|--------------|--------------|--------------|-------------| 

e|-2--------2h3-|-2-------2---|-2--------2---|-0-------0---| 
B|------3-------|------3------|------3-------|-----3-------| 
G|----2---------|----2--------|----0-------0-|---0-------0-| 
D|-0------0-----|-0------0----|--------0-----|-------2-----| 
A|--------------|-----------0-|-2------------|-3-----------| 
E|--------------|-------------|--------------|-------------| 

e|-2--------2-------2-----2--|-2-------2---|-0-------0---| 
B|------3-------3------3-----|------3------|-----3-------| 
G|----2-------2------2-------|----0------0-|---0-------0-| 
D|-0------0-------0-----0----|--------0----|-------2-----| 
A|--------------------------0|-2-----------|-3-----------| 
E|---------------------------|-------------|-------------| 

verse 1: 
                               "Rest     your  head   
e|-2--------2---|-2--------2---|-2--------2---|-0-------0---| 
B|------3-------|------3-------|------3-------|-----3-------| 
G|----2-------2-|----2-------2-|----0-------0-|---0-------0-| 
D|-0------0-----|-0------0-----|--------0-----|-------2-----| 
A|--------------|--------------|-2------------|-3-----------| 
E|--------------|--------------|--------------|-------------| 
  my love;                      Rest           your tired 
e|-2--------2---|-2--------2---|-2--------2---|-0-------0---| 
B|------3-------|------3-------|------3-------|-----3-------| 
G|----2-------2-|----2-------2-|----0-------0-|---0-------0-| 
D|-0------0-----|-0------0-----|--------0-----|-------2-----| 
A|--------------|--------------|-2------------|-3-----------| 
E|--------------|--------------|--------------|-------------| 
  limbs;                        Leave your     mind       at  
e|-2--------2---|-2--------2---|-2--------2---|-0-------0---| 
B|------3-------|------3-------|------3-------|-----3-------| 
G|----2-------2-|----2-------2-|----0-------0-|---0-------0-| 
D|-0------0-----|-0------0-----|--------0-----|-------2-----| 
A|--------------|--------------|-2------------|-3-----------| 
E|--------------|--------------|--------------|-------------| 
              peace,                      at peace,       at                   
e|-0--------0---|-0--------0---|-0--------0---|-0--------0---| 
B|------3-------|------0-------|------3-------|------0-------| 
G|----0-------0-|----0-------0-|----0-------0-|----0-------0-| 
D|--------2-----|--------2-----|--------2-----|--------2-----| 
A|-3------------|-3------------|-3------------|-3------------| 
E|--------------|--------------|--------------|--------------| 
  peace,  What are you thinking now?" 
e|-3--------3---|-------------|-2--------2---| 
B|------0-------|-------------|------3-------| 
G|----0-------0-|-------------|----2-------2-| 
D|--------0-----|-----0-2-0---|--------0-----| 
A|-3------------|---2-------0-|-0------------| 
E|--------------|-3-----------|--------------| 

(Repeat for verses 2 and 3) 


Interlude: 

e|-----------2-------|-----------2-------|-------0-----|-------0-----| 
B|---------3---3-----|---------3---3-----|-----3---3---|-----3---3---| 
G|-------2-------2---|-------2-------2---|---0-------0-|---0-------0-| 
D|-----0-----------0-|-----0-----------0-|-------------|-------------| 
A|---0---------------|---0---------------|-3-----------|-2-----------| 
E|-------------------|-------------------|-------------|-------------| x4 
  
e|--5---5---0---0---0--| 
B|--2---2---2---2---2--| 
G|--0---0---0---0---0--| 
D|--0---0---0---0---0--| 
A|--2---2---2---2---2--| 
E|--3---3---3---0---0--| x2 

verse 4: 
                                     "She left me one  
e|-2--------2---|-2--------2---|-0-------0---|---------0---| 
B|------3-------|------3-------|-----3-------|-3-----------| 
G|----2-------2-|----2-------2-|---0-------0-|-----0-------| 
D|-0------0-----|-0------0-----|-------2-----|---3-------3-| 
A|--------------|--------------|-3-----------|-2-----2-----| 
E|--------------|--------------|-------------|-------------| 
  dark night                    She took my heart... 
e|-2--------2---|-2--------2---|-0-------0---|---------0---| 
B|------3-------|------3-------|-----3-------|-3-----------| 
G|----2-------2-|----2-------2-|---0-------0-|-----0-------| 
D|-0------0-----|-0------0-----|-------2-----|---3-------3-| 
A|--------------|--------------|-3-----------|-2-----2-----| 
E|--------------|--------------|-------------|-------------| 

(Repeat throughout verse, until the end of the song) 

At the end of the song, play: 
  
 "God if I saw her now." 
e|-------------| 
B|-------------| 
G|-------------| 
D|-----0-2-0---| 
A|---2-------0-| 
E|-3-----------| 
 
		  

See also:

tabs The Beatles - Drive My Car tabs The Smiths - Heaven Knows I'm Miserable Now tabs Eric Clapton - Hey, Hey tabs Coldplay - Yellow tabs Queen - We will rock you tabs Dire Straits - Sultans of swing (completa)
e-chords

Other versions:

tabs Anthony Phillips - God If I Saw Her Now
auto scroll beats size up size down change color hide chords drawings
tab show chords e-chords YouTube Clip e-chords hide all tabs e-chords go to top tab

share